» » »

Warrant, Sometimes She Cries Tabs (ver.1)

Artists:  A B C D E F G H I J K L M N O P Q R S T U V W X Y Z # 

Sometimes She Cries Tabs (ver.1)

Warrant Tabs
 Rating:
4.4/5 (7 votes)
Sometimes She Cries lessons Tabs too difficult? Try these video lessons and learn fast
                (Intro)
-------------------------------------------------------------------------------
                         Sometimes she cries/Warrant
-------------------------------------------------------------------------------

Tuning:Down/ 1/2 step

e|-------------------------------12h15-14h12--12-----------------------------|
B|--------------------------12h15-----------15--15h12------------------------|
G|------------------12h14h15-------------------------15h14h12-----12---------|
D|-------------12h14------------------------------------------14-------------|
A|-----10h12/14--------------------------------------------------------------|
E|10h12----------------------------------------------------------------------|

e|---------------------------------------------------------------------------|
B|---------------------------------------------12 13 12----------------------|
G|---14 bend w/+ 12---14 bend w/+ 14---11 12 14--------14 12 12  ------------|
D|---------------------------------------------------------------------------|
A|---------------------------------------------------------------------------|
E|---------------------------------------------------------------------------|

e|------------------22--------17 19 20 19 17---------------------------------|
B|22 bend 20 22 bend--22 19 20--------------20-------15 bend 15--------------|
G|---------------------------------------------------------------------------|
D|---------------------------------------------------------------------------|
A|---------------------------------------------------------------------------|
E|---------------------------------------------------------------------------|
Verse  (G)   (C add 9)   (Dm 11)   (C add 9)
e|------3--------0----------5----------0-------------------------------------|
B|------3--------3----------6----------3-------------------------------------|
G|------0--------0----------5----------0-------------------------------------|
D|------0--------2----------5----------2-------------------------------------|
A|------2--------3----------5----------3-------3 2 0-------------------------|
E|------3-------------------------------------------3------------------------|
   (G)   (C add 9)  (Dm 11)  (C add 9)
e|--3-------0----------5---------0-------------------------------------------|
B|--3-------3----------6---------3-------------------------------------------|
G|--0-------0----------5---------0-------------------------------------------|
D|--0-------2----------5---------2-------------------------------------------|
A|--2-------3----------5---------3-------------------------------------------|
E|--3------------------------------------------------------------------------|
pre-chorus;   (D)    (D)     (D)
e|-------------2------2-------2----------------------------------------------|
B|-------------3------3-------3----------------------------------------------|
G|----0--0-----2------2-------2----------------------------------------------| 
D|---2--0------0-0-0--0-0-0---0-0-0------------------------------------------|
A|--3--2---------------------------------------------------------------------|
E|---------------------------------------------------------------------------|
(REPEAT)

CHORUS;  (G)      (C)     (D)    (C)
e|-------3--3----0---0---2---2---0--0----------------------------------------|
B|-------3--3----3---3---3---2---3--3----------------------------------------|
G|-------0--0----0---0---2---3---0--0----------------------------------------|
D|-------0--0----2---2---0---0---2--2----------------------------------------|
A|-------2--2----3---3-----------3--3----------------------------------------|
E|-------3--3----------------------------------------------------------------|
(REPEAT)

e|---------------------------------------------------------------------------|
B|---------------------------------------------------------------------------|
G|---------------------------------------------------------------------------|
D|---------------------------------------------------------------------------|
A|---------------------------------------------------------------------------|
E|---------------------------------------------------------------------------|


| /  slide up
| \  slide down
| h  hammer-on
| p  pull-off
| ~  vibrato
| +  harmonic
| x  Mute note
===============================================================================
            
Submit corrections

comments powered by Disqus
↑ Back to top | Warrant Tabs for Sometimes She Cries. Lyrics for acoustic guitar and electric guitar. Tablatures and chords are parodies/interpretations of the original songs. You may use it for private study, scholarship, research or language learning purposes only