>
 >
Salvation 1

Salvation 1 Guitar Tabs

War Of Ages - Salvation 1 chords, tabs, tablatures, lyrics

Guitar lessons | Add/correct | Request | Top 50 tabs Artists:  A B C D E F G H I J K L M N O P Q R S T U V W X Y Z 0-9

Salvation 1 Guitar Tabs – War Of Ages

CD, Sheet music, Poster

Do you like Salvation 1? Share with your friends now
TabsTabs v2
-------------------------------------------------------------------------------
                             Salvation - War Of Ages
-------------------------------------------------------------------------------

made some corrections. it wont let me updat mine so im just putting up a new one. if 
can figure out the solo ill put it in here and give you the credit

Tuning: Drop C

Intro Riff
|------------------------------------------------------------------------------------|
|------------------------------------------------------------------------------------|
|-----------------------------------------9------------------------------------------|
|--------10-----10-9------------12-----12---10---------10-----10-9-7-5/9-7-----------|
|-7----------------------7----------------------7------------------------------5-7-9-|
|-7--7-7----7-7------7-7-7--7-7----7-7----------7--7-7----7-7--------------0-0-5-7-9-|
                                      X4

 Gtr 2 on second time before solo
|---------------------------------------------------------------------------|
|-------------------------------------8-------------------------------------|
|-------9-----9-7-----------10-----10---9-------9-----9-7-5-4-7-5-----------|
|---------------------------------------------------------------------------|
|-7-------------------7-------------------7---------------------------5-7-9-|
|-7-7-7---7-7-----7-7-7-7-7----7-7--------7-7-7---7-7-------------0-0-5-7-9-|

Verse Riff
|----------------------------------------------------------------------------------------|
|----------------------------------------------------------------------------------------|
|----------------------------------------------------------------------------------------|
|----------------------------------------------------------------------------------------|
|-10---------8-7------------------------------10---------8-7-----------------------------|
|-10-7-7-7-7-8-7-7-7-5/7-7-7-7-7-7-7-10-8-7-8-10-7-7-7-7-8-7-7-7-5/7-7-7-10-7-7-8-7-7-7-8|

|---------------------------------------------------------------------------|
|---------------------------------------------------------------------------|
|---------------------------------------------------------------------------|
|---------------------------------------------------------------------------|
|-15-------------14-12------------------------------------------------------|
|-15-12-12-12-12-14-12-12-12-10/12-12-12-12-12-12-12-15-14-12-14------------|

|---------------------------------------------------------------------------|
|---------------------------------------------------------------------------|
|---------------------------------------------------------------------------|
|15-------------14-12-------------------------------------------------------|
|15-12-12-12-12-14-12-12-12-10/12-12-12-15-12-12-14-12-12-12-14-------------|

|-----------------------------------------------------------------------------------|
|-----------------------------------------------------------------------------------|
|-----------------------------------------9-----------------------------------------|
|--------10-----10-9------------12-----12---10---------10-----10-9-7-5-7-7----------|
|-7------7------7--7-----7------7------7--7-7---7------7------7--7-0-0-0-0-----5-7-9|
|-7--7-7----7-7------7-7-7--7-7----7-7----------7--7-7----7-7--------------0-0-5-7-9|

i guess this would be the breakdown

 Gtrs. 1 & 2
|-----------------------------------------|
|-----------------------------------------|
|-----------------------------------------|
|-----------------------------------------|
|-7-------7----7-7-5--7-------7--5-5--5-5-|
|-7-7-7-7-7--777-7-5--7-7-7-7-7--5-5--5-5-| X6

 Gtr. 2
|----------------------------------------------------------------------------------------|
|----------------------------------------------------------------------------------------|
|----------------------------------------------------------------------------------------|
|--------12-14-10----12-14-10----10----9-12-9-------12-14-10----12-14-10----10----12-10-9|
|-12--12----------12----------12----12--------12-12----------12----------12----12--------|
|----------------------------------------------------------------------------------------|
played twice during the riff above

 Gtr. 1
|--------|
|--------|
|--------|
|-10-9-7-|
|-7--5-3-|
|--------|
|
|Gtr. 2    X2
|--------|
|--------|
|--------|
|--------|
|-7--5-3-|
|-7--5-3-|


Outro Riff
|-----------------------------------------------------------------------------|
|-----------------------------------------------------------------------------|
|-----------------------------------------------------------------------------|
|-----------------------------------------------------------------------------|
|-0-0-0-0-15p12-0-0-12p14-0-0-10-0-0-10/12-0-0-7p5h9p5-0-0-10-0-0-10-0-0-10/12|
|-----------------------------------------------------------------------------|

|---------------------------------------------------------|
|---------------------------------------------------------|
|---------------------------------------------------------|
|---------------------------------------------------------|
|-0-0-0-0-15p12-0-0-12h14-0-0-10-0-0-10/12-0-0-7p5h9p5-0-0|
|---------------------------------------------------------|





Comments


Popular War Of Ages tabs & chords
Aftermath Bass Tabs
Battle On 2 Tabs
Instrumental Tabs
Instrumental 2 Tabs
Salvation Tabs
Scars Of Tommorow Tabs
Stand Your Ground Tabs
The Fall Of Pride Tabs
Through The Flames Tabs
Yet Another Fallen Eve Tabs


Song lyrics



↑ Back to top | Tablatures and chords are parodies/interpretations of the original songs. You may use it for private study, scholarship, research or language learning purposes only
© 2014 AZChords.com Contact us | Privacy policy | DMCA | Add/correct tabs | Request tabs | Top 50 tabs