>
 >
Salvation

Salvation Guitar Tabs

War Of Ages - Salvation chords, tabs, tablatures, lyrics

Guitar lessons | Add/correct | Request | Top 50 tabs Artists:  A B C D E F G H I J K L M N O P Q R S T U V W X Y Z 0-9

Salvation Guitar Tabs – War Of Ages

CD, Sheet music, Poster

Do you like Salvation? Share with your friends now
TabsTabs v2
-------------------------------------------------------------------------------
-------------------------------------------------------------------------------

This solo is nuts, so i haven't figured it out yet

Tuning: Drop C

Intro Riff
|------------------------------------------------------------------------------------|
|------------------------------------------------------------------------------------|
|-----------------------------------------9------------------------------------------|
|--------10-----10-9------------12-----12---10---------10-----10-9-7-5/9-7-----------|
|-7----------------------7----------------------7------------------------------5-7-9-|
|-7--7-7----7-7------7-7-7--7-7----7-7----------7--7-7----7-7--------------0-0-5-7-9-| 
                                          X4

Verse Riff
|----------------------------------------------------------------------------------------|
|----------------------------------------------------------------------------------------|
|----------------------------------------------------------------------------------------|
|----------------------------------------------------------------------------------------|
|-10---------8-7------------------------------10---------8-7-----------------------------|
|-10-7-7-7-7-8-7-7-7-5/7-7-7-7-7-7-7-10-8-7-8-10-7-7-7-7-8-7-7-7-5/7-7-7-10-7-7-8-7-7-7-8|


|-----------------------------------------------------------------------------------|
|-----------------------------------------------------------------------------------|
|-----------------------------------------9-----------------------------------------|
|--------10-----10-9------------12-----12---10---------10-----10-9-7-5-7-7----------|
|-7------7------7--7-----7------7------7--7-7---7------7------7--7-0-0-0-0-----5-7-9|
|-7--7-7----7-7------7-7-7--7-7----7-7----------7--7-7----7-7--------------0-0-5-7-9|



i guess this would be the breakdown

 Gtrs. 1 & 2
|-----------------------------------------|
|-----------------------------------------|
|-----------------------------------------|
|-----------------------------------------|
|-7-------7----7-7-5--7-------7--5-5--5-5-|
|-7-7-7-7-7--777-7-5--7-7-7-7-7--5-5--5-5-| X6

 Gtr. 2
|----------------------------------------------------------------------------------------|
|----------------------------------------------------------------------------------------|
|----------------------------------------------------------------------------------------|
|--------12-14-10----12-14-10----10----9-12-9-------12-14-10----12-14-10----10----12-10-9|
|-12--12----------12----------12----12--------12-12----------12----------12----12--------| 
|----------------------------------------------------------------------------------------|
played twice during the riff above

 

 Gtr. 1
|--------|
|--------|
|--------|
|-10-9-7-|
|-7--5-3-|
|--------|
|          
|Gtr. 2    X2
|--------|
|--------|
|--------|
|--------|
|-7--5-3-|
|-7--5-3-|


Outro Riff
|-----------------------------------------------------------------------------|
|-----------------------------------------------------------------------------|
|-----------------------------------------------------------------------------|
|-----------------------------------------------------------------------------|
|-0-0-0-0-15p12-0-0-12p14-0-0-10-0-0-10/12-0-0-7p5h9p5-0-0-10-0-0-10-0-0-10/12|
|-----------------------------------------------------------------------------|

|-----------------------------------------------------------------|
|-----------------------------------------------------------------|
|-----------------------------------------------------------------|
|----------------------------------------------------------10-9-7-|
|-0-0-0-0-15p12-0-0-12h14-0-0-10-0-0-10/12-0-0-7p5h9p5-0-0-7--5-3-|
|-----------------------------------------------------------------|
 gtr.2 would play the same set of power chords as before





Comments


Popular War Of Ages tabs & chords
Aftermath Bass Tabs
Absence Of Fear Tabs
Brothers In Arms Intro Tabs
Instrumental 2 Tabs
Meb Tabs
One Day Intro Tabs
Scars Of Tommorow Tabs
Strength Within Intro Tabs
The Fall Of Pride Tabs
Through The Flames Tabs


Song lyrics



↑ Back to top | Tablatures and chords are parodies/interpretations of the original songs. You may use it for private study, scholarship, research or language learning purposes only
© 2014 AZChords.com Contact us | Privacy policy | DMCA | Add/correct tabs | Request tabs | Top 50 tabs