» » »

Spill The Wine Bass tabs (ver.2)

Artists:  A B C D E F G H I J K L M N O P Q R S T U V W X Y Z # 

Spill The Wine Bass tabs (ver.2)

War
Rating:
0/5 (0 votes)

Hard to play? Try these video lessons and learn fast.
                Hello, I think  this is the way this song is played on bass. Have fun and please rate!


Duration Legend
---------------
H - half
Q - quarter
E - 8th
. - note dotted


Tablature Legend
----------------
h - hammer on
p - pull off
b - bend
S - slide


Intro - 0:16
     Q    Q    Q    E  E     E  Q    Q    E  E  E   
G||-----------------------|------------------------|
D||-----------------------|------------------------|
A||--5----3----3----1--1--|-----3----3----3--3--3--|
E||-----------------------|------------------------|


  Q    Q    Q    E  E     E  Q    Q    E  E  E   
-----------------------|------------------------|
-----------------------|------------------------|
--5----3----3----1--1--|-----3----3----3--------|
-----------------------|------------------------|


  Q    Q    Q    E  E     E  Q    Q    E  E  E   
-----------------------|------------------------|
-----------------------|------------------------|
--5----3----3----1--1--|-----3----3----3--3--3--|
-----------------------|------------------------|


  Q    Q    Q    E  E     E  Q    Q    E  E  E   
-----------------------|------------------------|
-----------------------|------------------------|
--5----3----3----1--1--|-----3----3----3--3--3--|
-----------------------|------------------------|

Verse 1 - 0:32
  Q    Q.     E  E  E     E  Q    Q    E  E  E   
-----------------------|-----5----5-------------|
--------------5--3--3--|------------------------|
--5----3---------------|---------------3--3--3--|
-----------------------|------------------------|


  Q    Q.     E  E  E     E  Q    Q    E  E  E   
-----------------------|------------------------|
--------------5--3--3--|------------------------|
--5----3---------------|-----3----3----3--3--3--|
-----------------------|------------------------|


  Q    Q.     E  E  E     E  Q    Q    E  E  E   
-----------------------|-----5----5----5--5--5--|
--------------5--3--3--|------------------------|
--5----3---------------|------------------------|
-----------------------|------------------------|


  Q    Q.     E  E  E     E  Q    Q    E  E  E   
-----------------------|------------------------|
--------------5--3--3--|------------------------|
-------3---------------|-----3----3----3--3--3--|
-----------------------|------------------------|


  Q    Q.     E  E  E     E  Q    Q    E  E  E   
-----------------------|-----5----5----5--5-----|
--------------5--3--3--|------------------------|
--5----3---------------|---------------------3--|
-----------------------|------------------------|


  Q    Q.     E  E  E     E  Q    Q    E  E  E   
-----------------------|------------------------|
--------------5--3--3--|------------------------|
--5----3---------------|-----3----3----3--3--3--|
-----------------------|------------------------|


  Q    Q.     E  E  E     E  Q    Q    E  E  E   
-----------------------|-----5----5----5--5--5--|
--------------5--3--3--|------------------------|
--5----3---------------|------------------------|
-----------------------|------------------------|


  Q    Q.     E  E  E     E  Q    Q    E  E  E   
-----------------------|------------------------|
--------------5--3--3--|------------------------|
--5----3---------------|-----3----3----3--3--3--|
-----------------------|------------------------|


1:06
  Q    Q.     E  E  E     E  Q    Q    E  E  E   
-----------------------|------------------------|
--------------5--3--3--|------------------------|
--5----3---------------|-----3----3----3--3--3--|
-----------------------|------------------------|


  Q    Q.     E  E  E     E  Q    Q    E  E  E   
-----------------------|------------------------|
--------------5--3--3--|------------------------|
--5----3---------------|-----3----3----3--3--3--|
-----------------------|------------------------|


  Q    Q.     E  E  E     E  Q    Q    E  E  E   
-----------------------|-----5----5----5--5--5--|
--------------5--3--3--|------------------------|
--5----3---------------|------------------------|
-----------------------|------------------------|


  Q    Q.     E  E  E     E  Q    Q    E  E  E   
-----------------------|------------------------|
--------------5--3--3--|------------------------|
--5----3---------------|-----3----3----3--3--3--|
-----------------------|------------------------|


  Q    Q.     E  E  E     E  Q    Q    E  E  E   
-----------------------|------------------------|
--------------5--3--3--|------------------------|
--5----3---------------|-----3----3----3--3--3--|
-----------------------|------------------------|


  Q    Q.     E  E  E     E  Q    Q    E  E  E   
-----------------------|-----5----5----5--5-----|
--------------5--3--3--|------------------------|
--5----3---------------|---------------------3--|
-----------------------|------------------------|


  Q    Q.     E  E  E     E  Q    Q    E  E  E   
-----------------------|-----5----5----5--5-----|
--------------5--3--3--|------------------------|
--5----3---------------|---------------------3--|
-----------------------|------------------------|


  Q    Q.     E  E  E     E  Q    Q    E  E  E   
-----------------------|------------------------|
--------------5--3--3--|------------------------|
--5----3---------------|-----3----3----3--3--3--|
-----------------------|------------------------|


  Q    Q.     E  E  E     E  Q    Q    E  E  E   
-----------------------|-----5----5----5--5-----|
--------------5--3--3--|------------------------|
--5----3---------------|---------------------3--|
-----------------------|------------------------|


  Q    Q.     E  E  E     E  Q    Q    E  E  E   
-----------------------|------------------------|
--------------5--3--3--|------------------------|
--5----3---------------|-----3----3----3--3--3--|
-----------------------|------------------------|


  Q    Q.     E  E  E     E  Q    Q    E  E  E   
-----------------------|-----5----5----5--5-----|
--------------5--3--3--|------------------------|
--5----3---------------|---------------------3--|
-----------------------|------------------------|


  Q    Q.     E  E  E     E  Q    Q    E  E  E   
-----------------------|------------------------|
--------------5--3--3--|------------------------|
--5----3---------------|-----3----3----3--3--3--|
-----------------------|------------------------|


1:55
  Q    Q.     E  E  E     E  Q    Q    E  E  E   
-----------------------|------------------------|
--------------5--3--3--|------------------------|
--5----3---------------|-----3----3----3--3--3--|
-----------------------|------------------------|


  Q    Q.     E  E  E     E  Q    Q    E  E  E   
-----------------------|-----5----5-------------|
--------------5--3--3--|------------------------|
--5----3---------------|---------------3--3--3--|
-----------------------|------------------------|


  Q    Q.     E  E  E     E  Q    Q    E  E  E   
-----------------------|------------------------|
--------------5--3--3--|------------------------|
--5----3---------------|-----3----3----3--3--3--|
-----------------------|------------------------|


  Q    Q.     E  E  E     E  Q    Q    E  E  E   
-----------------------|------------------------|
--------------5--3--3--|------------------------|
--5----3---------------|-----3----3----3--3--3--|
-----------------------|------------------------|


  Q    Q.     E  E  E     E  Q    Q    E  E  E   
-----------------------|-----5----5----5--5-----|
--------------5--3--3--|------------------------|
--5----3---------------|---------------------3--|
-----------------------|------------------------|


  Q    Q.     E  E  E     E  Q    Q    E  E  E   
-----------------------|------------------------|
--------------5--3--3--|------------------------|
--5----3---------------|-----3----3----3--3--3--|
-----------------------|------------------------|


  Q    Q.     E  E  E     E  Q    Q    E  E  E   
-----------------------|------------------------|
--------------5--3--3--|------------------------|
--5----3---------------|-----3----3----3--3--3--|
-----------------------|------------------------|


  Q    Q.     E  E  E     E  Q    Q    E  E  E   
-----------------------|------------------------|
--------------5--3--3--|------------------------|
--5----3---------------|-----3----3----3--3--3--|
-----------------------|------------------------|


Chorus 1 - 2:25
  Q    Q    Q    E  E     E  E  H         E  E   
-----------------------|------------------------|
-----------------------|------------------------|
--5----3----3----1--1--|-----3------------------|
-----------------------|--------1S--------8-----|


  Q    Q    S  S  S S E  E     E  E  H         E  E   
----------------------------|------------------------|
------------5p-0h-5---------|------------------------|
--5----3--------------1--1--|-----3------------------|
----------------------------|--------1S--------8-----|


  Q    Q    S  S  S S E  E     E  Q    Q    E  E  E   
----------------------------|------------------------|
------------5p-0h-5---------|------------------------|
--5----3--------------1--1--|-----3----3----3--3--3--|
----------------------------|------------------------|


  Q    Q    Q    E  E     E  E  H         E  E   
-----------------------|------------------------|
-----------------------|------------------------|
--5----3----3----1--1--|-----3------------------|
-----------------------|--------1S--------8-----|


Verse 2 - 2:40
  Q    Q    E  E  E  E     E  E  E  E  E  E  E  E   
------------0--5--------|--------------------------|
------------------3--3--|-----5--------------------|
--5----3----------------|--------3--3--3--3--3--3--|
------------------------|--------------------------|


  Q    Q    E  E  E  E     E  E  E  E  E  E  E  E   
------------0--5--------|-----5--------------------|
------------------3--3--|--------------------------|
--5----3----------------|--------3--3--3--3--3--3--|
------------------------|--------------------------|


  Q    Q    E  E  E  E     E  E  E  E  E  E  E  E   
------------0--5--------|--------------------------|
------------------3--3--|-----5--------------------|
--5----3----------------|--------3--3--3--3--3--3--|
------------------------|--------------------------|


  Q    Q    E  E  E  E     E  E  E  E  E  E  E  E   
------------0--5--------|--------------------------|
------------------3--3--|-----5--------------------|
--5----3----------------|--------3--3--3--3--3--3--|
------------------------|--------------------------|


  Q    Q.     E  E  E     E  Q    Q    E  E  E   
-----------------------|-----5----5-------------|
--------------5--3--3--|------------------------|
--5----3---------------|---------------3--3--3--|
-----------------------|------------------------|


  Q    Q.     E  E  E     E  Q    Q    E  E  E   
-----------------------|-----5----5----5--5--5--|
--------------5--3--3--|------------------------|
--5----3---------------|------------------------|
-----------------------|------------------------|


  Q    Q.     E  E  E     E  Q    Q    E  E  E   
-----------------------|-----5----5----5--5-----|
--------------5--3--3--|------------------------|
--5----3---------------|---------------------3--|
-----------------------|------------------------|


  Q    Q.     E  E  E     E  Q    Q    E  E  E   
-----------------------|------------------------|
--------------5--3--3--|------------------------|
--5----3---------------|-----3----3----3--3--3--|
-----------------------|------------------------|


  Q    Q.     E  E  E     E  Q    Q    E  E  E   
-----------------------|-----5----5----5--5-----|
--------------5--3--3--|------------------------|
--5----3---------------|---------------------3--|
-----------------------|------------------------|


  Q    Q.     E  E  E     E  Q    Q    E  E  E   
-----------------------|------------------------|
--------------5--3--3--|------------------------|
--5----3---------------|-----3----3----3--3--3--|
-----------------------|------------------------|


Chorus 2 - 3:19
  Q    Q    Q    E  E     E  E  H         E  E   
-----------------------|------------------------|
-----------------------|------------------------|
--5----3----3----1--1--|-----3------------------|
-----------------------|--------1S--------8-----|


  Q    Q    Q    E  E     E  Q    Q    E  E  E   
-----------------------|------------------------|
-----------------------|------------------------|
--5----3----3----1--1--|-----3----3----3--3--3--|
-----------------------|------------------------|


  Q    Q    Q    E  E     E  E  H         E  E   
-----------------------|------------------------|
-----------------------|------------------------|
--5----3----3----1--1--|-----3------------------|
-----------------------|--------1S--------8-----|


  Q    Q    Q    E  E     E  Q    Q    E  E  E   
-----------------------|------------------------|
-----------------------|------------------------|
--5----3----3----1--1--|-----3----3----3--3--3--|
-----------------------|------------------------|


  Q    Q    Q    E  E     E  E  H         E  E   
-----------------------|------------------------|
-----------------------|------------------------|
--5----3----3----1--1--|-----3------------------|
-----------------------|--------1S--------8-----|


  Q    Q    Q    E  E     E  Q    Q    E  E  E   
-----------------------|------------------------|
-----------------------|------------------------|
--5----3----3----1--1--|-----3----3----3--3--3--|
-----------------------|------------------------|


  Q    Q    Q    E  E     E  E  H         E  E   
-----------------------|------------------------|
-----------------------|------------------------|
--5----3----3----1--1--|-----3------------------|
-----------------------|--------1S--------8-----|


  Q    Q    Q    E  E     E  Q    Q    E  E  E   
-----------------------|------------------------|
-----------------------|------------------------|
--5----3----3----1--1--|-----3----3----3--3--3--|
-----------------------|------------------------|


  Q    Q    Q    E  E     E  E  H         E  E   
-----------------------|------------------------|
-----------------------|------------------------|
--5----3----3----1--1--|-----3------------------|
-----------------------|--------1S--------8-----|


  Q    Q    Q    E  E     E  E  H         E  E    
-----------------------|------------------------||
-----------------------|------------------------||
--5----3----3----1--1--|-----3------------------||
-----------------------|--------1S--------8-----||
            
Hard to play? Try these video lessons and learn fast. | Correct




comments powered by Disqus
↑ Back to top | Tablatures and chords are parodies/interpretations of the original songs. You may use it for private study, scholarship, research or language learning purposes only