» » »

Spill The Wine Bass tabs (ver.1)

Artists:  A B C D E F G H I J K L M N O P Q R S T U V W X Y Z # 

Spill The Wine Bass tabs (ver.1)

War
Rating:
3/5 (2 votes)

Hard to play? Try these video lessons and learn fast.
                Tuning: Standard


G |---------------------------------------------------------------------------|
D |---------------------------------------------------------------------------|
A |---5-3--77-3-3-3-3---5-3--77-3-3-3-3---5-3--77-3-3-3-3---5-3--77-3-3-3-3---|
E |---------------------------------------------------------------------------|


G |----------------------------------------------|
D |----------------------------------------------|
A |---5-3--77-10-10-10-10------5-3--77-3-3-3-3---| - 4 times
E |----------------------------------------------|



G |---------------------------------------------------------------------------|
D |---------------------------------------------------------------------------|
A |---5-3--77-3-3-3-3---5-3--77-3-3-3-3---5-3--77-3-3-3-3---5-3--77-3-3-3-3---|
E |---------------------------------------------------------------------------|



G |----------------------------------------------|
D |----------------------------------------------|
A |---5-3--77-10-10-10-10------5-3--77-3-3-3-3---| - 4 times
E |----------------------------------------------|



G |---------------------------------------------------------------------------|
D |---------------------------------------------------------------------------|
A |---5-3--77-3-3-3-3---5-3--77-3-3-3-3---5-3--77-3-3-3-3---5-3--77-3-3-3-3---|
E |---------------------------------------------------------------------------|



G |----------------------------------------------|
D |----------------------------------------------|
A |---5-3--77-10-10-10-10------5-3--77-3-3-3-3---| - 4 times
E |----------------------------------------------|



G |---------------------------------------------------------------------------|
D |---------------------------------------------------------------------------|
A |---5-3--77-3-3-3-3---5-3--77-3-3-3-3---5-3--77-3-3-3-3---5-3--77-3-3-3-3---|
E |---------------------------------------------------------------------------|

That's it, good song.
            
Hard to play? Try these video lessons and learn fast. | Correct




comments powered by Disqus
↑ Back to top | Tablatures and chords are parodies/interpretations of the original songs. You may use it for private study, scholarship, research or language learning purposes only