» » »

Wallflowers, One Headlight Tabs (ver.4)

Artists:  A B C D E F G H I J K L M N O P Q R S T U V W X Y Z # 

One Headlight Tabs (ver.4)

Wallflowers Tabs
 Rating:
4/5 (4 votes)
One Headlight lessons Tabs too difficult? Try these video lessons and learn fast
1
                -------------------------------------------------------------------------------
                             One Headlight - The Wallflowers
-------------------------------------------------------------------------------

Tuning: Standard

This is the rhythm for this amazing song. When I figure out the lead and the outro solo, 
I'll be back, don't worry. It's pretty easy, so Enjoy!

Intro:

e|---------------------------------------------------------------------------|
B|---------------------------------------------------------------------------|
G|------0h2------0h2-----------------------/9-7---------0------------7-------|
D|----0--------0---------5p4----------------------9-7---------/9-------------|
A|--0--------0----------------5p0--2--------------------------------------9--|
E|---------------------------------------------------------------------------|

e|-----------------------|
B|-----------------------|
G|--------7/9-----11-----|
D|-------------------12--|
A|--7\5------------------|
E|-----------------------|

Verse:

e|---------------------------------------------|
B|---------------------------------------------|
G|-----------7-----------------4--------2------|
D|--5--------7--8x----4--------4--4x----2--4x--|
A|--5--8x----5--------4--8x----2--------0------|
E|--3-----------------2------------------------|

Pre-Chorus:

e|----------------------------|
B|----------------------------|
G|-----------7----------------|
D|--5--------7--8x----4-------|
A|--5--8x----5--------4--16x--|
E|--3-----------------2-------|

Chorus:

e|-------------------------------------------------------------------------|
B|-------------------------------------------------------------------------|
G|-----------7--------9--------------------------7--------9----------------|
D|--5--------7--8x----9--8x----7--------5--------7--8x----9--8x----7-------|
A|--5--8x----5--------7--------7--8x----5--8x----5--------7--------7--16x--|
E|--3--------------------------5--------3--------------------------5-------|

Solo/Fill:

e|--------------17--12----12--14--10-----19--22--17------17------------------|
B|--12--15--19----------------------------------------19------19--17--14--15-|
G|---------------------------------------------------------------------------|
D|---------------------------------------------------------------------------|
A|---------------------------------------------------------------------------|
E|---------------------------------------------------------------------------|

There it is and here is the song order. Good Luck!

Song order:
Intro
Verse
Pre-Chorus
Chorus
Verse
Pre-Chorus
Chorus
Solo/Fill
Verse
Pre-Chorus
Chorus

************************************

| /   slide up
| \   slide down
| h   hammer-on
| p   pull-off
| ~   vibrato
| +   harmonic
| x   Mute note
| b   Bend
| pb  Pre-bend
| br  Bend release
| pbr Pre-bend release
| brb Bend release bend

************************************
            
Submit corrections

comments powered by Disqus
↑ Back to top | Wallflowers Tabs for One Headlight. Lyrics for acoustic guitar and electric guitar. 1 Tablatures and chords are parodies/interpretations of the original songs. You may use it for private study, scholarship, research or language learning purposes only