» » »

Heroes Tabs (ver.1)

Artists:  A B C D E F G H I J K L M N O P Q R S T U V W X Y Z # 

Heroes Tabs (ver.1)

Wallflowers
Rating:
5/5 (6 votes)

Hard to play? Try these video lessons and learn fast.
                
Standard tuning EADGBe

-For the fills use heavy distortion, rhythm guitar only slightly distorted.

Fill 1:
            D            G
e|------------------------------------|
B|-----10---10--------10-12p10--------|    2x
G|------------------------------------|
D|------------------------------------|
A|------------------------------------|
E|------------------------------------|

let ring!           pull off slowly

you can also try to bend the B-string from 10 up to 12 and release, but I'm not sure about it. Listen to the record to get the timing.


Fill 2:

Play it as bridge when you go the the C-chord. 
           C                                           D                           
e|----------------------------------------------------------------------|
B|---7h8p7---7-----------7h8p7---7-------------7h8p7--------------------|
G|---------9-----7-------------9-----7---------------7------------------|
D|-----------------------------------------------------7-----7---7h9p7--|
A|----------------------------------------------------------------------|
E|----------------------------------------------------------------------|       
 "Though nothing ....                                ...away."


Fill 3:
           Am                    Em
e|---------------------------------------------|
B|---7h8p7---------------7h8p7----0------------|
G|-----------9-----------------9---------------|
D|---------------------------------------------|
A|---------------------------------------------|
E|---------------------------------------------|
  "we can beat them...                 ...just for ..."


Chords:

   D   G   C  Am  Em

e|-2---3---0---0---0-|
B|-3---3---1---1---0-|
G|-2---0---0---2---0-|
D|-0---0---2---2---2-|
A|-x---2---3---0---2-|
E|-x---3---3---x---0-|




Intro:  D  (fill 1) G    D  (fill 1) G

D			   G		
I, I wish you could swim - 

          D			               G
Like the dolphins, like dolphins can swim

(fill 2) C		 	                 D		
Though nothing, nothing will keep us together - 

(fill 3)      Am    Em               D
We can beat them      for ever and ever

           C      G	          D   (fill 1)  G
We can be Heroes    just for one day

    D		      G	     D		     G
And I, I will be king - And you, you will be queen

(fill 2)C			                 D
Though nothing nothing will drive them away 

  (fill 3)  Am     Em	            D
We can be Heroes     just for one day

     	  C     G		      D
We can be us    just for one day


		G	     D	       G
And I, I remember - Standing by the wall

     D	              G		      
The guns they shot above our heads - 

        D                              G
And we kissed as though nothing could fall

(fill 2) C		               D 	  (fill 3)     Am	   Em		      D
And the Seine was on the other side - We can beat them     forever and ever

           C	  G		     D
We can be Heroes     just for one day  

            G	  D
We can be heroes


            G	  D
We can be heroes

            G	  D
We can be heroes

    	      G	              D  (fill 1)  G    D
We can be     heroes  just one day.


_____________________________________________________

Ok, that's it. Fills 2 + 3 are not exactly to hear, but I think this way it works. It's always a good thing to listen to the record to get the feeling and the special sound.
This is my first tab, so please mail back if you like it or if you've got any corrections.
            
Hard to play? Try these video lessons and learn fast. | Correct




comments powered by Disqus
↑ Back to top | Tablatures and chords are parodies/interpretations of the original songs. You may use it for private study, scholarship, research or language learning purposes only