» » »

Wallflowers, 6th Avenue Heartache Chords (ver.1)

Artists:  A B C D E F G H I J K L M N O P Q R S T U V W X Y Z # 

6th Avenue Heartache Chords (ver.1)

Wallflowers Tabs
Rating:
3/5 (5 votes)
6th Avenue Heartache lessons Tabs too difficult? Try these video lessons and learn fast
                I bet you guys will like these chords over the others here. I got these by a combination 


 D   A   Em   G

 2   0   0    1
 3   2   0    0
 2   2   0    0
 0   2   2    0
 x   0   2    2
 x   x   0    3


Capo 3rd fret

Verse I:
Sirens [D] ring,   shots rang [A] out,
A stranger [Em] cries,...    screams out [G] loud,
I had my [D] world,...    strapped against my [A] back,
I held my [Em] hands,...   never  knew  [G] how  to act,

chorus:Well the [D] same black line that was drawn on you
was [A] drawn on me,       and now its drawn me [Em] in,
6th avenue [G] heartache

Verse II:
Below  [D] me,      was a homeless [A] man,
I'm singing [Em] songs,...     I knew com-[G] plete,
On the steps [D] alone,....    his guitar in [A] hand,
his 50 [Em] years,....     he stood where he [G] stands,

Repeat Chorus Twice

Verse III:
Now I'm walking [D] home,...    on those [A] streets,
the river [Em] winds,....    move my  [G]  feet
The subway [D] steam,....    like silhouettes in [A] dreams,
Stood by [Em] me,...... [stood by me]  just like moon-[G] beams,

Repeat Chorus Twice

Verse IV:
Look out the [D] window,   down upon that [A] street,
Gone like at [Em] midnight,   was, that [G] man,
but I see his [D] six strings,..   layed against that [A] wall,
and all his [Em] things,.... they all look so [G] small,
I got my fingers [D] crossed,...  on  a shooting [A] star
just like [Em] me,.....    just moved,  [G]   just moved on

Chorus: (repeat)

Now you can also play with these chords a little bit to spice it up a little. It sounds 
good when you get it down.


  <    D (varied)    >   <    A (varied)    >

--2--222--22--33--3220---0--000--00--00--0000-------|
--3--333--33--33--3333---2--223--33--22--2000-------|
--2--222--22--22--2222---2--222--22--22--2222-------|
--0--000--00--00--0000---2--222--22--22--2222-------|
-------------------------0--000--00--00--0000-------|
----------------------------------------------------|


This in more of the real strum pattern:

V V V^V^V V^V

But I like to add a little touch of my own.


Also, I've been playing with the solo in the beginning. I know i'm a little off but if 


These are writtin without the Capo in mind so 10th fret is 10th fret.


-10-8-8h10-8-------------------------|
-------------10-10p8---8h10-8---6h8--|
---------------------9--------9------|
-------------------------------------|
-------------------------------------|
-------------------------------------|


-------------------------------------|
-6---6h8-6---11/13-11-13b-13-11-11---|
---7-------8-------------------------|
-------------------------------------|
-------------------------------------|
-------------------------------------|
            

comments powered by Disqus
↑ Back to top | Wallflowers Chords for 6th Avenue Heartache. Lyrics for acoustic guitar and electric guitar. Tablatures and chords are parodies/interpretations of the original songs. You may use it for private study, scholarship, research or language learning purposes only