» » »

I've Been Delivered Bass tabs (ver.1)

Artists:  A B C D E F G H I J K L M N O P Q R S T U V W X Y Z # 

I've Been Delivered Bass tabs (ver.1)

Wallflowers
Rating:
0/5 (0 votes)

Tabs too difficult? Try these video lessons and learn fast.
                -------------------------------------------------------------------------------
                             I've been delivered - Wallflowers
-------------------------------------------------------------------------------

Tuning:

  
  drums- intro
G|-----|-----------------------------------------------|
D|-----|-----------------------------------------------|
A|-----|-7--7--------------6--7--------------------6-7-|
E|-----|-------7--7--5--5--------5--5--7--7--5--5------|

  verse
G|-----------------------------------------------|
D|-----------------------------------------------|
A|-7--7--------------6--7--------------------6-7-|
E|-------7--7--5--5--------5--5--7--7--5--5------|

 
  verse
G|-----------------------------------------------|
D|-----------------------------------------------|
A|-7--7--------------6--7--------------------6-7-|
E|-------7--7--5--5--------5--5--7--7--5--5------|


  chorus
G|--------------------------------------------|
D|--------------------------------------------|
A|-7--7--------4--4--7--7-----------------9-7-|
E|-------4--4--------------4--5--7--7--5------|


  interlude
G|-----------------------------------------------|
D|-----------------------------------------------|
A|-7--7--------------6--7--------------------6-7-|
E|-------7--7--5--5--------5--5--7--7--5--5------|

  interlude
G|-----------------------------------------------|
D|-----------------------------------------------|
A|-7--7--------------6--7--------------------6-7-|
E|-------7--7--5--5--------5--5--7--7--5--5------|


  outro
G|------------------------------------------------|
D|------------------------------------------------|
A|--7--7--------------6--7--------------------6-7-|
E|--------7--7--5--5--------5--5--7--7--5--5------|

 
  piece order:   

  intro
  verse
  chorus
  verse
  chorus
  verse
  chorus 
  verse 
  chorus
  verse
  chorus
  verse
  chorus
  interlude
  outro 
            
Tabs too difficult? Try these video lessons and learn fast.


comments powered by Disqus
↑ Back to top | Tablatures and chords are parodies/interpretations of the original songs. You may use it for private study, scholarship, research or language learning purposes only