» » »

Bleeders Tabs (ver.1)

Artists:  A B C D E F G H I J K L M N O P Q R S T U V W X Y Z # 

Bleeders Tabs (ver.1)

Wallflowers
Rating:
0/5 (0 votes)

Hard to play? Try these video lessons and learn fast.
                

Intro: C#m - B - E - A - F#m - A - Fill 1#

Fill 1#                                                                  
                                                
E------0--0--0----0-----0-------------------------
B---5--5--5--5----4-----2------0------------------
G-------------------------------------------------
D-------------------------------------------------
A-------------------------------------------------
E-------------------------------------------------

Verse:
C#m          B    E
     Once upon a time
            A            F#m     A - Fill 1#
     They called me the bleeder
C#m                B        E
      Well swimmin' up this river
             F#m         A             A-Fill 1#  
      With  sentimental fever

This fill 2# is played during this part:

Fill 2#
E--0--4---2-----0---4---2-----0--4---2-----0---4---2---5---4---0---
B------------------------------------------------------------------
G------------------------------------------------------------------
D------------------------------------------------------------------
A------------------------------------------------------------------
E------------------------------------------------------------------

C#m         B           E
But this ain't my first ride
     A             F#m
It ain't my last try
A
Just got to keep movin' on
C#m      B            E
If they catch me ever
        A             F#m
They'll throw me back forever

chorus:
C#m            B              E     
I guess I should be ashamed
C#m         B             E
But I forget to be vain
C#m                   B        E
Well I did the best I could I guess
F#m                   A
But everything just bleeds
                C#m   B       A   E
They say you're only sad and lonely
F#m                A
And no one is impressed

 Solo:

E---4-------7---4-------7---4------7---4---2-------
B--------------------------------------------------
G--------------------------------------------------
D--------------------------------------------------
A--------------------------------------------------
E--------------------------------------------------

E----~12---14----------------------------------------------
B--------------12--14-------12----9---12---9---7--7---5~~--
G----------------------------------------------------------
D----------------------------------------------------------
A----------------------------------------------------------
E----------------------------------------------------------

Verse:

Same with fill 1#

I sent it off in a letter
I need somethin' better
Than a nail and a hammer
To put me back together

Same with  fill  2#

But this ain't my first ride
It ain't my last try
Just got to keep a-movin on
Got to keep this together
Maybe next time is never
Sometimes I must confess
I do feel a little over dressed
Sometimes it's hard to tell the wishing from the well
Where you threw the penny and where it fell

CHORUS:(Same)

I guess I should I should be ashamed
But I forget to be vain
Well I did the best I could I guess
But everything just bleeds
I guess I should be ashamed
But I forget to be vain
Well I did the best I could I guess
But everything just bleeds
They say you're only sad and lonely
And no one is impressed

End(C#m-B-E)
            
Hard to play? Try these video lessons and learn fast. | Correct




comments powered by Disqus
↑ Back to top | Tablatures and chords are parodies/interpretations of the original songs. You may use it for private study, scholarship, research or language learning purposes only