>
 >
Sold Out 1

Sold Out 1 Guitar Tabs

Wakefield - Sold Out 1 chords, tabs, tablatures, lyrics

Guitar lessons | Add/correct | Request | Top 50 tabs Artists:  A B C D E F G H I J K L M N O P Q R S T U V W X Y Z 0-9

Sold Out 1 Guitar Tabs – Wakefield

CD, Sheet music, Poster

Do you like Sold Out 1? Share with your friends now
TabsTabs v2

x=palm mute
*=harmonic

intro
e(--------------------)
B(--------------------)
G(--8------8----------)
D(--8------8----------)
A(--6------6----------)
D(--------------------)

intro Pt 2
e(--------------------------------------------------
B(--------------------------------------------------
G(--8--8----------------------8--8------------------
D(--8--8-8--6-5--6-5--6-5--6--8--8-8--6-5--10--8----
A(--6--6-8--6-5--6-5--6-5--6--6--6-8--6-5--10--8----
D(-------8--6-5--6-5--6-5--6-------8--6-5--10--8----

e(--------------------------------------------
B(--------------------------------------------
G(--8--8----------------------8--8------------
D(--8--8-8--6-5--6-5--6-5--6--8--8-8--6-5-----
A(--6--6-8--6-5--6-5--6-5--6--6--6-8--6-5-----
D(-------8--6-5--6-5--6-5--6-------8--6-5-----

verse
e(------------------------------------
B(------------------------------------
G(--8-8-------------------------------
D(--8-8--8-8--6-6--8-8----8-8---8-----  2X
A(--6-6--8-8--6-6--8-8-xx-8-8-x-8-----
D(-------8-8--6-6--8-8-xx-8-8-x-8-----

e(--------------------------------------------------------------
B(--------------------------------------------------------------
G(--8-8---------------------------------------------------------
D(--8-8---------8-8---------6-6---------------------------------
A(--6-6-10-8-10-8-8-10-8-10-6-6-10-8-10-11-11-11-11-10-10-8-10--
D(--------------8-8---------6-6---------------------------------

e(------------------------------------------
B(------------------------------------------
G(--8-8-------------------------------------
D(--8-8---------8-8---------6-6-------------
A(--6-6-10-8-10-8-8-10-8-10-6-6-10-8-10-11--
D(--------------8-8---------6-6-------------

chorus
e(------------------------------------------
B(------------------------------------------
G(--88888888--------------------------------
D(--88888888--88888888--66666666--88888888-- 2X
A(--66666666--88888888--66666666--88888888--
D(------------88888888--66666666--88888888--

intro pt 2 2X

verse 

chorus

intro pt 2 2x

break
e(-----------------------------------------------------------------------
b(------*7---------------*7---------------*7---------------*7------------harmonic
G(--888-*7-88888888------*7---------------*7---------------*7------------   is
D(--888----88888888--888----88888888--666----66666666--888----88888888---optional
A(--666----66666666--888----88888888--666----66666666--888----88888888---
D(-------------------888----88888888--666----66666666--888----88888888---

e(---------------------------------------------------------------------------------
b(---------------------------------------------------------------------------------
G(--888-----88888888---------------------------------------------------------------
D(--888-xxx-88888888--888-xxx---88888888--666-xxx---66666666--888-xxx---88888888---
A(--666-xxx-66666666--888-xxx---88888888--666-xxx---66666666--888-xxx---88888888---
D(------xxx-----------888-xxx---88888888--666-xxx---66666666--888-xxx---88888888---

e(------------------------------------------------------
B(------------------------------------------------------
G(--888-----------------888-----------------------------
D(--888--888--666--888--888-----888-----666-----888-----
A(--666--888--666--888--666-xxx-888-xxx-666-xxx-888-xxx-
D(-------888--666--888------xxx-888-xxx-666-xxx-888-xxx-

chorus 2x

intro pt. 2 2X





Comments


Popular Wakefield tabs & chords
Un-Sweet Sixteen Bass Tabs
Heaven's Coming Chords
Cmon Baby Intro Tabs
Dedicated Tabs
Girls Rock Boys Tabs
Goodbye (Intro) Tabs
Heavens Coming - Intro Tabs
Infamous Tabs
Say You Will Tabs
Sold Out Tabs


Song lyrics



↑ Back to top | Tablatures and chords are parodies/interpretations of the original songs. You may use it for private study, scholarship, research or language learning purposes only
© 2014 AZChords.com Contact us | Privacy policy | DMCA | Add/correct tabs | Request tabs | Top 50 tabs