>
 >
Sold Out

Sold Out Guitar Tabs

Wakefield - Sold Out chords, tabs, tablatures, lyrics

Guitar lessons | Add/correct | Request | Top 50 tabs Artists:  A B C D E F G H I J K L M N O P Q R S T U V W X Y Z 0-9

Sold Out Guitar Tabs – Wakefield

CD, Sheet music, Poster

Do you like Sold Out? Share with your friends now
TabsTabs v2
Song name: Sold out
In Dropped D tuning

Play all with distortion except for Riff 5 and Riff 6

Intro
e  ----------------------------|
b  ----------------------------|
g  ----------------------------|
d  0---------0--------0000000--|
a  0---------0--------0000000--|
D  0---------0--------0000000--|
PM                     XXXXXX

Riff 1
e  ---------------------------------------------------|
b  ---------------------------------------------------|
g  ---------------------------------------------------|
d  0---7-7---5-4-5-4---7-7---0---7-7---5-4-5-4---9-7--|
a  0---7-7---5-4-5-4---7-7---0---7-7---5-4-5-4---9-7--|
D  0---7-7---5-4-5-4---7-7---0---7-7---5-4-5-4---9-7--|
PM

Riff 2
e  -------------------------------|
b  -------------------------------|
g  -------------------------------|
d  0-0---0-0---5-5---5-55---5-55--|
a  0-0---0-0---5-5---5-55---5-55--|
D  0-0---0-0---5-5---5-55---5-55--|
PM                     XX     XX

Riff 3
e  ------------------------------------------------------|
b  ------------------------------------------------------|
g  ------------------------------------------------------|
d  0-0--4-2-4---0-0--4-2-4---0-0--4-2-4-6-6-6-6-6-4-2-4--|
a  0-0----------0-0----------0-0-------------------------|
D  0-0----------0-0---------0-0-------------------------|
PM

Riff 4
e  --------------------------------------|
b  --------------------------------------|
g  --------------------------------------|
d  0-0--4-2-4---0-0--4-2-4---0-0--4-2-4--|
a  0-0----------0-0----------0-0---------|
D  0-0----------0-0---------0-0---------|
PM

chorus
e  --------------------------------------------------------------------|
b  --------------------------------------------------------------------|
g  --------------------------------------------------------------------|
d  0-0-0-0-0-0-0-0--7-7-7-7-7-7-7-7--5-5-5-5-5-5-5-5--7-7-7-7-7-7-7-7--|
a  0-0-0-0-0-0-0-0--7-7-7-7-7-7-7-7--5-5-5-5-5-5-5-5--7-7-7-7-7-7-7-7--|
D  0-0-0-0-0-0-0-0--7-7-7-7-7-7-7-7--5-5-5-5-5-5-5-5--7-7-7-7-7-7-7-7--|
PM

Riff 5
e  ------------------|
b  ------------------|
g  8--------5--------|
d  8--------5--------|
a  6--------3--------|
D  ------------------|
PM

Bridge
e  ---------------------------------------|
b  ---------------------------------------|
g  5-5---5-5-5-5---8---3-3---3-3-3-3------|
d  5-5---5-5-5-5---8---3-3---3-3-3-3---6--|
a  3-3---3-3-3-3---6---1-1---1-1-1-1---6--|
D  ------------------------------------6--|
PM

Riff 6
e  ------------------------------------|
b  ------------------------------------|
g  ------------------------------------|
d  0--------7--------5--------7--------|
a  0--------7--------5--------7--------|
D  0--------7--------5--------7--------|
PM

Riff 7
e  -----------------------|
b  -----------------------|
g  -----------------------|
d  0-0---7-7---5-5---7-7--|
a  0-0---7-7---5-5---7-7--|
D  0-0---7-7---5-5---7-7--|
PM


Intro   x1
Riff 1  x2  The second time through you don't play the last 2 notes
Riff 2  x2
Riff 3  x1
Riff 4  x1
Chorus  x2
Riff 1  x1
Riff 2  x2
Riff 3  x1
Riff 4  x1
Chorus  x2
Riff 5  x1
Bridge  x4
Riff 6  x2
Riff 7  x2
Riff 1  x2





Comments


Popular Wakefield tabs & chords
Un-Sweet Sixteen Bass Tabs
Heaven's Coming Chords
Cmon Baby Intro Tabs
Girls Rock Boys Tabs
Goodbye (Intro) Tabs
Hors D'oeuvres Avant Le Coup D'etat (Picture Frame) Tabs
Sold Out 1 Tabs
Un-Sweet Sixteen Tabs
Wild One Tabs
Heavens Coming Ukulele


Song lyrics



↑ Back to top | Tablatures and chords are parodies/interpretations of the original songs. You may use it for private study, scholarship, research or language learning purposes only
© 2014 AZChords.com Contact us | Privacy policy | DMCA | Add/correct tabs | Request tabs | Top 50 tabs