» » »

Waiting For Fisher, Untitled Tabs (ver.2)

Artists:  A B C D E F G H I J K L M N O P Q R S T U V W X Y Z # 

Untitled Tabs (ver.2)

Waiting For Fisher Tabs
 Rating:
4/5 (4 votes)
Untitled lessons Tabs too difficult? Try these video lessons and learn fast
                Intro
E-----------------------------------------------------------------------------------
B-----------------------------------------------------------------------------------
G--------9----------9-----------9----------9------------------------------- x2
D------9----9----9-----9-----9-----9-----9---9------9--------9--------------
A----7---------7----------------------------------9----9---9---9-----7-9-----7-9-
E-------------------------7-----------7---------7-------7--------7-9-----7-9---


Chorus
E------------------------------------------------------------------
B----------------------------------------------------------------
G-----9-------9-----9-------------------------------------------------
D-----9---x7--9-----9---x7---7---9--------------------------------------------
A-----7-------0-----7--------7---9—x8---------------7---9-----------7---9-------
E-------------------7--------7---7----------7---9-----------7--9---------

Bridge

E-----------------------------------------------------------------------------------
B-----------------------------------------------------------------------------------
G------9-------9------9------9------------------------------------------------------
D------9-------9------9------9--------9-----9---------------------------------------
A------7-------7------7------7--------9-----9---------------7-----9-----------------
E----------------------7------7--------7-----7------7---9---------------------------
            
Submit corrections

comments powered by Disqus
↑ Back to top | Waiting For Fisher Tabs for Untitled. Lyrics for acoustic guitar and electric guitar. Tablatures and chords are parodies/interpretations of the original songs. You may use it for private study, scholarship, research or language learning purposes only