>
 >
Untitled 1

Untitled 1 Guitar Tabs

Waiting For Fisher - Untitled 1 chords, tabs, tablatures, lyrics

Guitar lessons | Add/correct | Request | Top 50 tabs Artists:  A B C D E F G H I J K L M N O P Q R S T U V W X Y Z 0-9

Untitled 1 Guitar Tabs – Waiting For Fisher

CD, Sheet music, Poster

Do you like Untitled 1? Share with your friends now
TabsTabs v2
Intro
E-----------------------------------------------------------------------------------
B-----------------------------------------------------------------------------------
G--------9----------9-----------9----------9------------------------------- x2
D------9----9----9-----9-----9-----9-----9---9------9--------9--------------
A----7---------7----------------------------------9----9---9---9-----7-9-----7-9-
E-------------------------7-----------7---------7-------7--------7-9-----7-9---


Chorus
E------------------------------------------------------------------
B----------------------------------------------------------------
G-----9-------9-----9-------------------------------------------------
D-----9---x7--9-----9---x7---7---9--------------------------------------------
A-----7-------0-----7--------7---9x8---------------7---9-----------7---9-------
E-------------------7--------7---7----------7---9-----------7--9---------

Bridge

E-----------------------------------------------------------------------------------
B-----------------------------------------------------------------------------------
G------9-------9------9------9------------------------------------------------------
D------9-------9------9------9--------9-----9---------------------------------------
A------7-------7------7------7--------9-----9---------------7-----9-----------------
E----------------------7------7--------7-----7------7---9---------------------------





Comments


Popular Waiting For Fisher tabs & chords
Dreams Tabs
Into The Night Tabs
Just A Rift Tabs
Untitled Tabs


Song lyrics



↑ Back to top | Tablatures and chords are parodies/interpretations of the original songs. You may use it for private study, scholarship, research or language learning purposes only
© 2014 AZChords.com Contact us | Privacy policy | DMCA | Add/correct tabs | Request tabs | Top 50 tabs