» » »

Untitled Tabs (ver.1)

Artists:  A B C D E F G H I J K L M N O P Q R S T U V W X Y Z # 

Untitled Tabs (ver.1)

Waiting For Fisher
Rating:
0/5 (0 votes)

Hard to play? Try these video lessons and learn fast.
                Play the intro kinda slow, the verse kinda medium, and the chorus medium-fast, cuz thats how it works in my mind.

INTRO
e|-----------------------------------------------------------| 
B|-----------------------------------------------------------| 
G|----------55----------55------55---------------------------| 
D|--55--77--55--22--55--55--55--55---------------------------| 
A|--55--77--33--22--55--33--55--33---------------------------| 
E|--33--55------00--33------33-------------------------------| 
Verse
e|-----------------------------------------------------------| 
B|-----------------------------------------------------------| 
G|----------------------5555--55-----------------------------| 
D|--5555--55--7777--77--5555--55--22222222-------------------| 
A|--5555--55--7777--77--3333--33--22222222-------------------| 
E|--3333--33--5555--55------------00000000-------------------| 
Main part of chorus
e|-----------------------------------------------------------| 
B|-----------------------------------------------------------| 
G|----------------------55555555-----------------------------| 
D|--55555555--77777777--55555555--22222222-------------------|  
A|--55555555--77777777--33333333--22222222-------------------| 
E|--33333333--55555555------------00000000-------------------| 
Last time through chorus play this
e|-----------------------------------------------------------| 
B|-----------------------------------------------------------| 
G|----------------------55555555-----------------------------| 
D|--55555555--77777777--55555555--22--55--22--55-------------|  
A|--55555555--77777777--33333333--22--55--22--55-------------| 
E|--33333333--55555555------------00--33--00--33-------------| 

Ok there it is. Its a little rudimenatary i know, but i was messin with my guitar and this came out, and i think it sounds pretty good. If you think i should change it at all let me know. I think it might need a transition from the chorus back to the verse so either the intro or you can come up with something on your own. I dont have any lyrics or anything for it yet but might do that tonight, while im crying in my room. Tell me what you think!
            
Hard to play? Try these video lessons and learn fast. | Correct




comments powered by Disqus
↑ Back to top | Tablatures and chords are parodies/interpretations of the original songs. You may use it for private study, scholarship, research or language learning purposes only