» » »

Vixen, Streets In Paradise Tabs (ver.1)

Artists:  A B C D E F G H I J K L M N O P Q R S T U V W X Y Z # 

Streets In Paradise Tabs (ver.1)

Vixen Tabs
 Rating:
4/5 (4 votes)
Streets In Paradise lessons Tabs too difficult? Try these video lessons and learn fast
1
                #------------------------------------------------------------------------------##
#


Vixen - Streets in Paradise

I didn't figure out the whole solo, not really worth it. :)  She's
ok, not great but ok.  Oh yeah left out the outro solo as well, same
sorry excuse. :)

Intro

---------------------------------------|--------------------------------|
---------------------------------------|--------------------------------|
---------------------------------------|--------------------------------|
--------------------2------0-----2--0--|--------------2-----0-----0----0|
--x\-----------------------------------|--------------------------------|
--x\----0--0--3--0-----0------0--------|--0--0--3--0-----0-----0-----3--|

--------------------------------|--------------------------------------|
--------------------------------|--------------------------------------|
--------------------------------|--------------------------------------|
--------------2-----0-----2--0--|--------------2--0dive-w/bar----------|
--------------------------------|--------------------------------------|
--0--0--3--0-----0-----0--------|--0--0--3--0--------------------------|

Verse

-----------------------------------------------------------------------|
-----------------------------------------------------------------------|
------2---------------------2------------------------------------------|
------2---------------------2------------------------2-----0-----2--0--|
------0----0--0--0--0-------0---0--0--0--------------------------------|
->3b-------------------3b----------------0--0--3--0-----0-----0--------|
>slightly


-------------------------------|
-------------------------------|
-------------------------------|
--------------2-----0---0------|
-------------------------------|
--0--0--3--0-----0---------3---|

Pre-Chorus

    Bb          F      C        Bb      F      C     D
-----------------------------------------------------------------------|
-----------------------------------------------------------------------|
-----------------------------------------------------------------------|
-----------------------------------------------------------------------|
-----------------------------------------------------------------------|
-----------------------------------------------------------------------|


Chorus

  G      Eb     Bb      F           G    Eb     Bb       F

-----------------------------------------------------------------------|
-----------------------------------------------------------------------|
-----------------------------------------------------------------------|
-----------------------------------------------------------------------|
-----------------------------------------------------------------------|
-----------------------------------------------------------------------|


  G     D     Eb     F       G
-----------------------------------------------------------------------|
-----------------------------------------------------------------------|
------------------------------------------5----------------------------|
------------------------------------------5----------------------------|
-----------------------------------------------------------------------|
---------------------------------3--6--3-----6--3---1/3--6--3--6--3----|


--------------|--------------------------------------------------------|
--------------|--------------------------------------------------------|
---5----------|--------------------------------------------------------|
---5----------|--------------2-----0-----2--0---==short lead==---------|
--------------|--------------------------------------------------------|
------6--3----|--0--0--3--0-----0-----0--------------------------------|

---------------------5bchoppy--p0---h12harmonic--dive-w/bar------------|
--18b(20)---15b(16)----------------------------------------------------|
-----------------------------------------------------------------------|
-----------------------------------------------------------------------|
-----------------------------------------------------------------------|
-----------------------------------------------------------------------|

Verse
Pre-Chorus
Chorus


Bridge

   F       Eb     Bb      F    Eb    Bb     Ab     G
-----------------------------------------------------------------------|
-----------------------------------------------------------------------|
-----------------------------------------------------------------------|
-----------------------------------------------------------------------|
-----------------------------------------------------------------------|
-----------------------------------------------------------------------|


--------------------------------|-------------18p15-----18p15-----18p15-|
--------------------------------|---18b(20)---------18--------18--------|
--------------------------------|---------------------------------------|
--------------0-----0-----2--0--|---------------------------------------|
--------------------------------|---------------------------------------|
--0--0--3--0-----0-----0--------|---------------------------------------|

-----18p15-----18p15-----18p15------------------15---------------------|
-18--------18--------18--------18----15b(17)hold----15b(17)~-----------|
-----------------------------------------------------------------------|
--------------------------------------------------------------/11--11--|
-----------------------------------------------------------------------|
-----------------------------------------------------------------------|

-----------------------------------------------------------------------|
-----------------------------------------------------------------------|
--9----9--9--8--etc----------------------------------------------------|
-----------------------------------------------------------------------|
-----------------------------------------------------------------------|
-----------------------------------------------------------------------|


Bridge

Chorus fade out


\ = slide
p pull off
h hammeron
x ghost note
dive w/bar dive with the whammy bar :)
b bend (10) fret to bend to
            
Submit corrections

comments powered by Disqus
↑ Back to top | Vixen Tabs for Streets In Paradise. Lyrics for acoustic guitar and electric guitar. 1 Tablatures and chords are parodies/interpretations of the original songs. You may use it for private study, scholarship, research or language learning purposes only