» » »

Streets In Paradise Bass tabs (ver.1)

Artists:  A B C D E F G H I J K L M N O P Q R S T U V W X Y Z # 

Streets In Paradise Bass tabs (ver.1)

Vixen
Rating:
0/5 (0 votes)

Hard to play? Try these video lessons and learn fast.
                
Intro {00:04}
                       ______       __
     |4x              |1,2,3       |4
G|-d-|----------------|------------|----------|
D|-r-|*---------------|-----------*|----------|
A|-u-|*---------7-----|-5-----5-7-*|-5/-------|
E|-m-|--0-0-3-0---0-0-|---0-0------|----------|

Verse 1 [repeat 2x] {00:16}
               ______  __
 |4x          |1,2,3  |4    |2x                         |
G|------------|-------|-----|---------------------------|
D|*-----------|------*|-----|*-------------------------*|
A|*-----------|------*|-----|*---------7-----5-----5-7-*|
E|--5-5-5-5-5-|-0-3---|-5-5-|--0-0-3-0---0-0---0-0------|
  A

Prechorus {00:40}
G|------------------------------------------------------------------------|
D|---------------------------------------------------------------------12-|
A|-------------3-3-3---1---3-3-3---1----1-1-1-------3-3-3---2-3-5-5-5/----|
E|-6-6-6-1-1-1-------3---3-------3---3--------1-1-1-------3---------------|
   Bb    F     C           C            Bb    F      C          D

----------------------|
-12-12-12-12-12-12-12-|
----------------------|
----------------------|

Chorus 1 {00:53}
                             ___        __
 |2x                        |1         |2        |
G|--------------------------|----------|---------|-----------------------------|
D|*-------------------------|---------*|---------|-----------------------------|
A|*---------6-6-6-6---------|---------*|-8-8-8-8-|-3-3-3-3-5-5-5-5-6-6-6-6-8-8-|
E|--3-3-3-3---------6-6-6-6-|-1-1-1-1--|---------|-----------------------------|
    G       Eb      Bb        F          F         C       D       Eb      F
                                                             __           __
                                           |4x              |1,2,3       |4   |
-------------------------------------------|----------------|------------|----|
-------------------------------------------|*---------------|-----------*|----|
-8-8---------------10-10-10-10-10-10-10-10-|*---------7-----|-5-----5-7-*|-5/-|
-----3-3-3-3-3-3-3-------------------------|--0-0-3-0---0-0-|---0-0------|----|
     G

Verse 2 [repeat 2x] {01:28}
               ______  __
 |4x          |1,2,3  |4    |2x                         |
G|------------|-------|-----|---------------------------|
D|*-----------|------*|-----|*-------------------------*|
A|*-----------|------*|-----|*---------7-----5-----5-7-*|
E|--5-5-5-5-5-|-0-3---|-5-5-|--0-0-3-0---0-0---0-0------|
  A

Prechorus {01:52}
G|------------------------------------------------------------------------|
D|---------------------------------------------------------------------12-|
A|-1-1-1-------3-3-3---1---3-3-3---1----1-1-1-------3-3-3---2-3-5-5-5/----|
E|-------1-1-1-------3---3-------3---3--------1-1-1-------3---------------|
   Bb    F     C           C            Bb    F      C          D

----------------------|
-12-12-12-12-12-12-12-|
----------------------|
----------------------|

Chorus 2 {02:05}
                             ___        __
 |2x                        |1         |2        |
G|--------------------------|----------|---------|-----------------------------|
D|*-------------------------|---------*|---------|-----------------------------|
A|*---------6-6-6-6---------|---------*|-8-8-8-8-|-3-3-3-3-5-5-5-5-6-6-6-6-8-8-|
E|--3-3-3-3---------6-6-6-6-|-1-1-1-1--|---------|-----------------------------|
    G       Eb      Bb        F          F         C       D       Eb      F

-------------------------------------------|
-------------------------------------------|
-8-8---------------10-10-10-10-10-10-10-10-|
-----3-3-3-3-3-3-3-------------------------|
     G

Bridge {02:29}
 |4x                |                                 |4x                 |
G|------------------|---------------------------------|--------------------|
D|*----------------*|---------------------------------|*-----------------*-|
A|*----------------*|-6-6-6-6-6-6-6-6-----------------|*-----------------*-|
E|-1-1-1-1-1-1-1-1--|-----------------6-6-6-6-6-6-6-6-|--1-1-1-1-1-1-1-1---|
   F                  Eb              Bb                 F

-----------------------------------------------------------------------------|
-----------------------------------------------------------------------------|
-6-6-6-6-6-6-6-6-------------------------------------------------10-10-10-10-|
-----------------6-6-6-6-6-6-6-6-4-4-4-4-4-4-4-4-3-3-3-3-3-3-3-3-------------|
 Eb              Bb              Ab              G

---------------------------------------|
-------------|-------------------------|
-10-10-10-10-|---------7-----5-----5-7-|
-------------|-0-0-3-0---0-0---0-0-----|

Guitar Solo {02:54}

G|-------------------|
D|*-----------------*|
A|*-----------------*|
E|--2-2-2-2-2-2-2-2--|

Prechorus {03:06}
G|------------------------------------------------------------------------|
D|---------------------------------------------------------------------12-|
A|-1-1-1-------3-3-3---1---3-3-3---1----1-1-1-------3-3-3---2-3-5-5-5/----|
E|-------1-1-1-------3---3-------3---3--------1-1-1-------3---------------|
   Bb    F     C           C            Bb    F      C          D

----------------------|
-12-12-12-12-12-12-12-|
----------------------|
----------------------|

Chorus 3 [repeat 4x] {03:19}
                             ___        __
 |2x                        |1         |2        |
G|--------------------------|----------|---------|-----------------------------|
D|*-------------------------|---------*|---------|-----------------------------|
A|*---------6-6-6-6---------|---------*|-8-8-8-8-|-3-3-3-3-5-5-5-5-6-6-6-6-8-8-|
E|--3-3-3-3---------6-6-6-6-|-1-1-1-1--|---------|-----------------------------|
    G       Eb      Bb        F          F         C       D       Eb      F

-------------------------------------------|
-------------------------------------------|
-8-8---------------10-10-10-10-10-10-10-10-|
-----3-3-3-3-3-3-3-------------------------|
     G
            
Hard to play? Try these video lessons and learn fast. | Correct




comments powered by Disqus
↑ Back to top | Tablatures and chords are parodies/interpretations of the original songs. You may use it for private study, scholarship, research or language learning purposes only