>
 >
I Am God 1

I Am God 1 Guitar Tabs

Vital Remains - I Am God 1 chords, tabs, tablatures, lyrics

Guitar lessons | Add/correct | Request | Top 50 tabs Artists:  A B C D E F G H I J K L M N O P Q R S T U V W X Y Z 0-9

I Am God 1 Guitar Tabs – Vital Remains

CD, Sheet music, Poster

Do you like I Am God 1? Share with your friends now
TabsTabs v2
Hail! Here I am with this masterpiece called "I am God" by Vital Remains. Still somethings missing (like the Flamenco solo, and the tremolo picked middle part), but I am working on it. 


Some Tab Meanings:
. Palm Mute           
/ Slide              
~ Vibrato
" Tremolo picking
h Hammer On
p Pull Off
AH Artificial Harmonic

Bend Sufixes
fb Full Bend
b  Half Bend
R  Bend Release

Tuning - 0.5 Step Down to Eb 

Riff 1 Intro  (x4)
eb|------------------------------------------------|
Bb|------------------------------------------------|
Gb|------------------------------------------------|
Db|----------5"-4"-5"---------------5"-4"----------|
Ab|-------4------------------4-4----------5"-------|
Eb|-22222-2------------22222-2-2-------------------|
    .....              .....

Riff 2 (The main stuff for this song.. play this 6 times)
eb|----------------------------------------------------------------|
Bb|----------------------------------------------------------------|
Gb|----------------------------------------------------------------|
Db|----------------------------------------------------------------|
Ab|------4------4-4------4------4-5-------4------4-4------4--7-6-7-|
Eb|-2222-2-2222-2-2-2222-2-2222-2-3--2222-2-2222-2-2-2222-2--5-4-5-|
    ....   ....     ....   ....      ....   ....     ....

Play intro again, 4 times (Song time = 0:57)
Play Riff 2 again, 4 times (Song time = 1:12)

Riff 3  (6 times)                          Ending 1    Ending 2
eb|-----------------------------| |---------| |----------|  
Bb|-----------------------------| |---------| |----------|
Gb|-----------------------------| |---------| |------2~~-|
Db|------2---2---2---3---3---3--| |--2-3-5--| |--2-3-----|
Ab|0-0-0--0-0-0-0-0-0-0-0-0-0---| |---------| |----------|
Eb|-----------------------------| |---------| |----------|
   . . .  . . . . . . . . . .  


Riff 4 (2 times)
eb|----------------------------------------|
Bb|----------------------------------------|
Gb|----------------------------------------|
Db|-------6-------6-------5-------5--------|
Ab|-0-0-0-4-0-0-0-4-0-0-0-3-0-0-0-3--------|
Eb|----------------------------------------|
    . . .   . . .   . . .   . . .

Then faster to Riff 5, with more beats...

Riff 5.1 (2 times)
eb|----------------------------------------------------------------|
Bb|----------------------------------------------------------------|
Gb|----------------------------------------------------------------|
Db|-6-------6-------6---------6-------5-------5-------5-------5----|
Ab|-4-0-0-0-4-0-0-0-4---0-0-0-4-0-0-0-3-0-0-0-3-0-0-0-3-0-0-0-3----|
Eb|----------------------------------------------------------------|
      . . .   . . .     . . .   . . .   . . .   . . .   . . .
Riff 5.2
Then guitar two plays (2 times) under Riff 5.1 
(Guitar One keep playing Riff 5.1 until Riff 6):
eb|-----------------------|
Bb|-----------------------|
Gb|-----------------------|
Db|-----------------------|
Ab|4~~---4-5-4-3~~---6~~--|
Eb|-----------------------|

Then both guitars plays Riff 5.1 (2 times)
Then guitar two plays Riff 5.2 under riff 5.1 again, more 2 times

Riff 6 (2 times)
eb|------------------------------------|----------------------------------|
Bb|------------------------------------|----------------------------------|
Gb|------------------------------------|----------------------------------|
Db|--5"--6"--5"--4"----5"--6"--5"--4"--|--7"--8"--7"--6"---7"--8--7"--6"--|
Ab|------------------------------------|----------------------------------|
Eb|------------------------------------|----------------------------------|

Then play Riff 3 a bit faster than before (4 times)...
(song time = 03:34)
Then play Riff 4 (2 times)


Riff 7 (song time = 4:07)
eb|--------------------------------------------|
Bb|--------------------------------------------|
Gb|--------------------------------------------|
Db|--------------------------------------------|
Ab|--------------------------------------------|
Eb|--------------------------------------------|

Riff 8  (2 times)
eb|------------------------------------------------------------|
Bb|------------------------------------------------------------|
Gb|------------------------------------------------------------|
Db|------------------------------------------------------------|
Ab|-7 let ring---6-let ring--7--let ring--6-let ring-----------|
Eb|-5------------4-----------5------------4--------------------|

Riff 9 (Song time = 05:30  - Under flamenco solo)
eb|-------------------------------------------------------------------------|
Bb|-------------------------------------------------------------------------|
Gb|-------------------------------------------------------------------------|
Db|-------------------------------------------------------------------------|
Ab|-4--4-4-4-4-4--4-4-4-4-4--4-4-4-4-4---2--2-2-2-2-2--2-2-2-2-2--2-2-2-2-2-|
Eb|-2--2-2-2-2-2--2-2-2-2-2--2-2-2-2-2---0--0-0-0-0-0--0-0-0-0-0--0-0-0-0-0-|
       . . . .    . . . . .  . . . . .      . . . .    . . . .    . . . .
Ending 2 for Riff 9
eb|-------------------------------------------------------------------------|
Bb|-------------------------------------------------------------------------|
Gb|-------------------------------------------------------------------------|
Db|-------------------------------------------------------------------------|
Ab|-4--4-4-4-4-4--4-4-4-4-4--4-4-4-4-4---7--7-7-7-7-7--7-7-7-7-7--7-7-7-7-7-|
Eb|-2--2-2-2-2-2--2-2-2-2-2--2-2-2-2-2---5--5-5-5-5-5--5-5-5-5-5--5-5-5-5-5-|
       . . . .    . . . .    . . . .        . . . .    . . . . .  . . . .

eb|----------------------|
Bb|----------------------|
Gb|----------------------|
Db|----------------------|
Ab|--5~------------------|
Eb|--3~------------------|

For now on, just repeats intro and some middle riffs and it will be done. Have fun.





Comments


Popular Vital Remains tabs & chords
Dechristanize Bass Tabs
Battle Ground Tabs
Dechristianize Tabs
Farewell To The Messhiah Tabs
Forever Underground Tabs
Forever Underground Intro Tabs
I Am God Tabs
Icons Of Evil Intro Tabs
Savior To Nonefailure To All Tabs
The Night Has A Thousand Eyes Tabs


Song lyrics



↑ Back to top | Tablatures and chords are parodies/interpretations of the original songs. You may use it for private study, scholarship, research or language learning purposes only
© 2014 AZChords.com Contact us | Privacy policy | DMCA | Add/correct tabs | Request tabs | Top 50 tabs