>
 >
I Am God

I Am God Guitar Tabs

Vital Remains - I Am God chords, tabs, tablatures, lyrics

Guitar lessons | Add/correct | Request | Top 50 tabs Artists:  A B C D E F G H I J K L M N O P Q R S T U V W X Y Z 0-9

I Am God Guitar Tabs – Vital Remains

CD, Sheet music, Poster

Do you like I Am God? Share with your friends now
TabsTabs v2
sup it's stiffy. i've been workin on this one for a while. i
cant figure out the solo's but i got the riffs under them. enjoy.


Keys:
 ___ - palm mute
 < > - pinch harmonic
  "  - tremelo pick
  x  - mute
  p  - pull off
 / \ - slide


INTRO:

|---------------------------------------------------|
|---------------------------------------------------|
|---------------------4-------------------------4---|
|---------4---5-5-5-5-4-5---------4--4--5-5-5-5-4---|
|---------4-----------------------4--4------------5-|
|-2-2-2-2-2---------------2-2-2-2-2--2--------------| 4x
  _______                 _______


RIFF A:
(Gtr 1)
|------------------------------------------------------
|------------------------------------------------------
|------------------------------------------------------
|---------4----------4------4----------4----------4-5--
|---------4----------4------4----------4----------4-5--
|-2-2-2-2-2--2-2-2-2-2--2-2-2--2-2-2-2-2--2-2-2-2-2-3--
  _______    _______    ___    _______    _______

(Gtr 2)
|-----------------------------------------------------
|-----------------------------------------------------
|-----------------------------------------------------
|-4------------------------------------------------5--
|-4------------------------------------------------5--
|-2------------------------------------------------3--

(Gtr 1)
 ------------------------------------------------------|
 ------------------------------------------------------|
 ------------------------------------------------------|
 ---------4----------4------4----------4------7--6--7--|
 ---------4----------4------4----------4------7--6--7--|
 -2-2-2-2-2--2-2-2-2-2--2-2-2--2-2-2-2-2--2-2-5--4--5--|
  _______    _______    ___    _______    ___

(Gtr 2)
 -----------------------------------------------------|
 -----------------------------------------------------|
 -----------------------------------------------------|
 -4------------------------------------------7--6--7--|
 -4------------------------------------------7--6--7--|
 -2------------------------------------------5--4--5--| 2x

(Gtr 1 + 2)
|------------------------------------------------------
|------------------------------------------------------
|------------------------------------------------------
|---------4----------4------4----------4----------4-5--
|---------4----------4------4----------4----------4-5--
|-2-2-2-2-2--2-2-2-2-2--2-2-2--2-2-2-2-2--2-2-2-2-2-3--
  _______    _______    ___    _______    _______

 ------------------------------------------------------|
 ------------------------------------------------------|
 ------------------------------------------------------|
 ---------4----------4------4----------4------7--6--7--|
 ---------4----------4------4----------4------7--6--7--|
 -2-2-2-2-2--2-2-2-2-2--2-2-2--2-2-2-2-2--2-2-5--4--5--| 4x
  _______    _______    ___    _______    ___


INTRO - 4x


RIFF A:

|------------------------------------------------------
|------------------------------------------------------
|------------------------------------------------------
|---------4----------4------4----------4----------4-5--
|---------4----------4------4----------4----------4-5--
|-2-2-2-2-2--2-2-2-2-2--2-2-2--2-2-2-2-2--2-2-2-2-2-3--
  _______    _______    ___    _______    _______

 ------------------------------------------------------|
 ------------------------------------------------------|
 ------------------------------------------------------|
 ---------4----------4------4----------4------7--6--7--|
 ---------4----------4------4----------4------7--6--7--|
 -2-2-2-2-2--2-2-2-2-2--2-2-2--2-2-2-2-2--2-2-5--4--5--| 4x
  _______    _______    ___    _______    ___


FILL:

|--------------------------------------
|--------------------------------------
|--------------------------------------
|--------------------------------------
|-------7---7---7---8---8---8---7-8-10-
|-000000-000-000-000-000-000-000-------
  ______ ___ ___ ___ ___ ___ ___

 ---------------------------------------|
 ---------------------------------------|
 ---------------------------------------|
 ----------------------------------<10>-|
 -------7--<7>--7---8---8---8---7-8-----|
 -000000-000-000-000-000-000-000--------|
  ______ ___ ___ ___ ___ ___ ___

(Gtr 1)
|--------------------------------------
|--------------------------------------
|--------------------------------------
|--------------------------------------
|-------7---7---7---8---8---8---7-8-10-
|-000000-000-000-000-000-000-000-------
  ______ ___ ___ ___ ___ ___ ___

(Gtr 2)
|--------------------------------------
|--------------------------------------
|--------------------------------------
|-------2---2---2---2---2---2----------
|-------2---2---2---2---2---2---7-8-10-
|-------0---0---0---0---0---0----------

(Gtr 1)
 ---------------------------------------|
 ---------------------------------------|
 ---------------------------------------|
 ----------------------------------<10>-|
 -------7--<7>--7---8---8---8---7-8-----|
 -000000-000-000-000-000-000-000--------|
  ______ ___ ___ ___ ___ ___ ___

(Gtr 2)
 ---------------------------------------|
 ---------------------------------------|
 ---------------------------------------|
 -------2---2---2---2---2---2------<10>-|
 -------2---2---2---2---2---2---7-8-----|
 -------0---0---0---0---0---0-----------|


RIFF B:

|------------------------------------------
|------------------------------------------
|------------------------------------------
|------------------------------------------
|-----7----7----7----8----8----8----7-8-10-
|-000---00---00---00---00---00---00--------
  ___   __   __   __   __   __   __

 -------------------------------------------|
 -------------------------------------------|
 -------------------------------------------|
 --------------------------------------<10>-|
 -----7----7----7----8----8----8----7-8-----|
 -000---00---00---00---00---00---00---------| 2x
  ___   __   __   __   __   __   __

(Gtr 1)
|------------------------------------------
|------------------------------------------
|------------------------------------------
|------------------------------------------
|-----7----7----7----8----8----8----7-8-10-
|-000---00---00---00---00---00---00--------
  ___   __   __   __   __   __   __

(Gtr 2)
|------------------------------------------
|------------------------------------------
|-9"----------------10"--------------------
|-x------------------x---------------------
|-7"-----------------8"--------------------
|------------------------------------------

(Gtr 1)
 -------------------------------------------|
 -------------------------------------------|
 -------------------------------------------|
 --------------------------------------<10>-|
 -----7----7----7----8----8----8----7-8-----|
 -000---00---00---00---00---00---00---------|
  ___   __   __   __   __   __   __

(Gtr 2)
 -------------------------------------------|
 -------------------------------------------|
 -9"----------------10"---------------------|
 -x------------------x----------------------|
 -7"-----------------8"---------------------|
--------------------------------------------| 2x


RIFF C:

|-------------------------------------|
|-------------------------------------|
|-6--------6--------5--------5--------|
|-6--------6--------5--------5--------|
|-4--------4--------3--------3--------|
|----5p3p2----5p3p2----3p2p0----3p2p0-| 2x

|------------------------------------------------------------------|
|------------------------------------------------------------------|
|-6-------6-------6-------6-------5-------5-------5-------5--------|
|-4-------4-------4-------4-------3-------3-------3-------3--------|
|-4-------4-------4-------4-------3-------3-------3-------3--------|
|---5-3-2---5-3-2---5-3-2---5-3-2---3-2-0---3-2-0---3-2-0----3-2-0-| 2x
    _____   _____   _____   _____   _____   _____   _____    _____

(Gtr 1)
|------------------------------------------------------------------|
|------------------------------------------------------------------|
|-6-------6-------6-------6-------5-------5-------5-------5--------|
|-4-------4-------4-------4-------3-------3-------3-------3--------|
|-4-------4-------4-------4-------3-------3-------3-------3--------|
|---5-3-2---5-3-2---5-3-2---5-3-2---3-2-0---3-2-0---3-2-0----3-2-0-|
    _____   _____   _____   _____   _____   _____   _____    _____

(Gtr 2)
|------------------------------------------------------------------|
|------------------------------------------------------------------|
|-6-----------------------6--7--6--5-------------/8----------------|
|-x-----------------------x--x--x--x--------------x----------------|
|-4-----------------------4--5--4--3-------------/6----------------|
|------------------------------------------------------------------| 2x

(Gtr 1 + 2)
|------------------------------------------------------------------|
|------------------------------------------------------------------|
|-6-------6-------6-------6-------5-------5-------5-------5--------|
|-4-------4-------4-------4-------3-------3-------3-------3--------|
|-4-------4-------4-------4-------3-------3-------3-------3--------|
|---5-3-2---5-3-2---5-3-2---5-3-2---3-2-0---3-2-0---3-2-0----3-2-0-| 2x
    _____   _____   _____   _____   _____   _____   _____    _____

(Gtr 1)
|------------------------------------------------------------------|
|------------------------------------------------------------------|
|-6-------6-------6-------6-------5-------5-------5-------5--------|
|-4-------4-------4-------4-------3-------3-------3-------3--------|
|-4-------4-------4-------4-------3-------3-------3-------3--------|
|---5-3-2---5-3-2---5-3-2---5-3-2---3-2-0---3-2-0---3-2-0----3-2-0-|
    _____   _____   _____   _____   _____   _____   _____    _____

(Gtr 2)
|------------------------------------------------------------------|
|------------------------------------------------------------------|
|-6-----------------------6--7--6--5-------------/8----------------|
|-x-----------------------x--x--x--x--------------x----------------|
|-4-----------------------4--5--4--3-------------/6----------------|
|------------------------------------------------------------------| 2x


RIFF D:

|-------------------------------------------------
|-------------------------------------------------
|-------------------------------------------------
|-4-4"--4-5"--4-4"--4-3"--4-4"--4-5"--4-4"--4-3"--
|-4-----4-----4-----4-----4-----4-----4-----4-----
|-2-----2-----2-----2-----2-----2-----2-----2-----

 -------------------------------------------------|
 -------------------------------------------------|
 -------------------------------------------------|
 -7-7"--7-8"--7-7"--7-6"--7-7"--7-8"--7-7"--7-6"--|
 -7-----7-----7-----7-----7-----7-----7-----7-----|
 -5-----5-----5-----5-----5-----5-----5-----5-----| 2x


RIFF B


RIFF C:

|-------------------------------------|
|-------------------------------------|
|-6--------6--------5--------5--------|
|-6--------6--------5--------5--------|
|-4--------4--------3--------3--------|
|----5p3p2----5p3p2----3p2p0----3p2p0-| 2x


RIFF E:

|---------------------------------------------------|
|---------------------------------------------------|
|---------------------------------------------------|
|-4-----------4-----4----4/5-4-----------8-7-5-/8-7-|
|-4-----------4-----4----4/5-4-----------8-7-5-/8-7-|
|-2-000000000-2-000-2-00-2/3-2-000000000-6-5-3-/6-5-| 4x
    _________   ___   __       _________


RIFF F:

|-----------------------------------------------|
|-----------------------------------------------|
|-----------------------------------------------|
|-4-------------------5"-4"-7"-6"-------------7-|
|-4-------5"-4"-7"-6"-------------7"-6"-------7-|
|-2-4"-5"-------------------------------5"-4"-5-| 4x


RIFF E - 4x


RIFF F - 4x


FILL:

|---------------------------|
|---------------------------|
|---------------------------|
|-7------------6------------|
|-7------------6------------|
|-5------------4------------| 4x


RIFF UNDER CLASSICAL SOLOS:

(Gtr 1)
|---------------------------------------------------------
|---------------------------------------------------------
|---------------------------------------------------------
|-4------4------4------4------2------2------2------2------
|-4------4------4------4------2------2------2------2------
|-2-2222-2-2222-2-2222-2-2222-0-0000-0-0000-0-0000-0-0000-
    ____   ____   ____   ____   ____   ____   ____   ____

(Gtr 2 - classical)
|-2------2------2------2------0------0------0------0------
|-2------2------2------2------0------0------0------0------
|-3------3------3------3------1------1------1------1------
|-4-4444-4-4444-4-4444-4-4444-2-2222-2-2222-2-2222-2-2222-
|-4-4444-4-4444-4-4444-4-4444-2-2222-2-2222-2-2222-2-2222-
|-2-2222-2-2222-2-2222-2-2222-0-0000-0-0000-0-0000-0-0000-

(Gtr 1)
 --------------------------------------------------------|
 --------------------------------------------------------|
 --------------------------------------------------------|
 -4------4------4------4------7------7------7------5--5--|
 -4------4------4------4------7------7------7------5--5--|
 -2-2222-2-2222-2-2222-2-2222-5-5555-5-5555-5-5555-3--3--|
    ____   ____   ____   ____   ____   ____   ____

(Gtr 2)
 -2------2------2------2------5------5------5------3--3--|
 -2------2------2------2------5------5------5------3--3--|
 -3------3------3------3------6------6------6------4--4--|
 -4-4444-4-4444-4-4444-4-4444-7-7777-7-7777-7-7777-5--5--|
 -4-4444-4-4444-4-4444-4-4444-7-7777-7-7777-7-7777-5--5--|
 -2-2222-2-2222-2-2222-2-2222-5-5555-5-5555-5-5555-3--3--| 5x

(Gtr 1)
|---------------------------------------------------------
|---------------------------------------------------------
|---------------------------------------------------------
|-6------6------6------6------2------2------2------2------
|-6------6------6------6------2------2------2------2------
|-4-4444-4-4444-4-4444-4-4444-0-0000-0-0000-0-0000-0-0000-
    ____   ____   ____   ____   ____   ____   ____   ____

(Gtr 2)
|-4------4------4------4------0------0------0------0------
|-4------4------4------4------0------0------0------0------
|-5------5------5------5------1------1------1------1------
|-6-6666-6-6666-6-6666-6-6666-2-2222-2-2222-2-2222-2-2222-
|-6-6666-6-6666-6-6666-6-6666-2-2222-2-2222-2-2222-2-2222-
|-4-4444-4-4444-4-4444-4-4444-0-0000-0-0000-0-0000-0-0000-

(Gtr 1)
 --------------------------------------------------------|
 --------------------------------------------------------|
 -----------------------------4------4------4------2--2--|
 -6------6------6------6------4------4------4------2--2--|
 -6------6------6------6------2-2222-2-2222-2-2222-0--0--|
 -4-4444-4-4444-4-4444-4-4444----------------------------|
    ____   ____   ____   ____   ____   ____   ____

(Gtr 2)
 -4------4------4------4------2------2------2------0--0--|
 -4------4------4------4------2------2------2------1--1--|
 -5------5------5------5------4-4444-4-4444-4-4444-2--2--|
 -6-6666-6-6666-6-6666-6-6666-4-4444-4-4444-4-4444-2--2--|
 -6-6666-6-6666-6-6666-6-6666-2-2222-2-2222-2-2222-0--0--|
 -4-4444-4-4444-4-4444-4-4444----------------------------| 2x


RIFF UNDER ELECTRIC SOLO:

|-----------------------------------------------------------------|
|-----------------------------------------------------------------|
|-----------------------------------------------------------------|
|-----------------------------------------------------------------|
|-7-------7-------7-------7-------6-------6-------6-------6-------|
|---7-5-4---7-5-4---7-5-4---7-5-4---8-6-5---8-6-5---8-6-5---8-6-5-| 4x
    _____   _____   _____   _____   _____   _____   _____   _____


RIFF C:

|-------------------------------------|
|-------------------------------------|
|-6--------6--------5--------5--------|
|-6--------6--------5--------5--------|
|-4--------4--------3--------3--------|
|----5p3p2----5p3p2----3p2p0----3p2p0-| 2x


RIFF E - 4x


RIFF F - 4x


RIFF E - 4x


RIFF F:

|-----------------------------------------------|
|-----------------------------------------------|
|-----------------------------------------------|
|-4-------------------5"-4"-7"-6"-------------7-|
|-4-------5"-4"-7"-6"-------------7"-6"-------7-|
|-2-4"-5"-------------------------------5"-4"-5-| 3x

|----------------------------------------------------------------|
|----------------------------------------------------------------|
|----------------------------------------------------------------|
|-4-------------------5"-4"-7"-6"-------------7-7----------------|
|-4-------5"-4"-7"-6"-------------7"-6"-------7-7----------------|
|-2-4"-5"-------------------------------5"-4"-5-5----------------|


RIFF A:
(Gtr 1)
|------------------------------------------------------
|------------------------------------------------------
|------------------------------------------------------
|---------4----------4------4----------4----------4-5--
|---------4----------4------4----------4----------4-5--
|-2-2-2-2-2--2-2-2-2-2--2-2-2--2-2-2-2-2--2-2-2-2-2-3--
  _______    _______    ___    _______    _______

(Gtr 2)
|-----------------------------------------------------
|-----------------------------------------------------
|-----------------------------------------------------
|-4------------------------------------------------5--
|-4------------------------------------------------5--
|-2------------------------------------------------3--

(Gtr 1)
 ------------------------------------------------------|
 ------------------------------------------------------|
 ------------------------------------------------------|
 ---------4----------4------4----------4------7--6--7--|
 ---------4----------4------4----------4------7--6--7--|
 -2-2-2-2-2--2-2-2-2-2--2-2-2--2-2-2-2-2--2-2-5--4--5--|
  _______    _______    ___    _______    ___

(Gtr 2)
 -----------------------------------------------------|
 -----------------------------------------------------|
 -----------------------------------------------------|
 -4------------------------------------------7--6--7--|
 -4------------------------------------------7--6--7--|
 -2------------------------------------------5--4--5--| 2x

(Gtr 1 + 2)
|------------------------------------------------------
|------------------------------------------------------
|------------------------------------------------------
|---------4----------4------4----------4----------4-5--
|---------4----------4------4----------4----------4-5--
|-2-2-2-2-2--2-2-2-2-2--2-2-2--2-2-2-2-2--2-2-2-2-2-3--
  _______    _______    ___    _______    _______

 ------------------------------------------------------|
 ------------------------------------------------------|
 ------------------------------------------------------|
 ---------4----------4------4----------4------7--6--7--|
 ---------4----------4------4----------4------7--6--7--|
 -2-2-2-2-2--2-2-2-2-2--2-2-2--2-2-2-2-2- 2-2-5--4--5--| 4x
  _______    _______    ___    _______    ___


OUTRO:

|---------------------------------------------------|
|---------------------------------------------------|
|---------------------4-------------------------4---|
|---------4---5-5-5-5-4-5---------4--4--5-5-5-5-4---|
|---------4-----------------------4--4------------5-|
|-2-2-2-2-2---------------2-2-2-2-2--2--------------| 4x
  _______                 _______

|-----------|
|-----------|
|-----------|
|---------4-|
|---------4-|
|-2-2-2-2-2-|





Comments


Popular Vital Remains tabs & chords
Dechristanize Bass Tabs
Battle Ground Tabs
Dechristianize Tabs
Farewell To The Messhiah Tabs
Forever Underground Tabs
Forever Underground Intro Tabs
I Am God 1 Tabs
Icons Of Evil Intro Tabs
Savior To Nonefailure To All Tabs
The Night Has A Thousand Eyes Tabs


Song lyrics



↑ Back to top | Tablatures and chords are parodies/interpretations of the original songs. You may use it for private study, scholarship, research or language learning purposes only
© 2014 AZChords.com Contact us | Privacy policy | DMCA | Add/correct tabs | Request tabs | Top 50 tabs