» » »

Christmas Time Tabs (ver.1)

Artists:  A B C D E F G H I J K L M N O P Q R S T U V W X Y Z # 

Christmas Time Tabs (ver.1)

Vince Guaraldi
Rating:
5/5 (3 votes)

Hard to play? Try these video lessons and learn fast.
                This Is transcribed for the guitar, but was originally written and performed on piano. 
is the song found at the beginning of the movie a Charlie Brown Christmas. Listen to the 
to get the timing.

-12--------15------------|   Verse 1
-13-13-13--16-16-16------|
-14--------17------------|
-------------------------|  After doing this for a while, it goes into the
-------------------------|  verse below
-------------------------|


-12---8---8---------5----5----------|      Verse 2
-8----8-------------6---------------|
-9----9-------------5---------------|
-10---10------------7---------------|  x2
-8----8-------------5---------------|
--------------------6---------------|


-5-----------------------------------|  verse 3
-6-6-6 5----8-------6--6---6--8------|
-5----------9-9-9-8-7----7----9------|
-7----------7-------8---------10-----|
-5----------8-----------------12-----|
-6-----------------------------------|


You then go back to verse two and play the excact same thing as before.

The next part then goes....


-8-------8--8-------8--------9----8--|
-9---9-9----9-------9--9-9--------9--|
-10---------9-------10------------9--|
-11-----------------11---------------|
-------------------------------------|
-------------------------------------|

-8----------8--8----------6-------------------|
-10--10--10----10--10-10--8-8-8-1--8----------|
-9-------------8----------9--------9----------|
-10------------8----------10-------10---------|
-8-------------8------------------------------|
----------------------------------------------|

Well thats about it, you just repeat the other verse 2 and 3 afterwards. Thanks for 
Merry Christmas
            
Hard to play? Try these video lessons and learn fast. | Correct




comments powered by Disqus
↑ Back to top | Tablatures and chords are parodies/interpretations of the original songs. You may use it for private study, scholarship, research or language learning purposes only