» » »

Vince Guaraldi, Linus And Lucy Tabs (ver.1)

Artists:  A B C D E F G H I J K L M N O P Q R S T U V W X Y Z # 

Linus And Lucy Tabs (ver.1)

Vince Guaraldi Tabs
Rating:
3/5 (2 votes)
Linus And Lucy lessons Tabs too difficult? Try these video lessons and learn fast
                -------------------------------------------------------------------------------
			     Linus and Lucy – Charlie Brown
-------------------------------------------------------------------------------

Tuning: Standard

 This an easy version of the song, and it sounds great!  Watch for timings though!

e|--------------------------------------------------------------------|
B|--------------------------------------------------------------------|
G|-----0---0----------------------------------------------------------|
D|----0---0---0h2--0h2---------------x2-------------------------------|
A|--------------------------------------------------------------------|
E|---3---3---3----3---------------------------------------------------|

For part below, play once, then repeat only the beginning
e|------------------|--------------------------------------------------|
B|------------------|--------------------------------------------------|
G|-0-2-4-4-2-0--2-0-|--0-2-4-4-----------------------------------------|
D|-0-0-0-0-0-0--0-0-|--0-0-0-0----0h2—0h2------------------------------|
A|-x-x-x-x-x-x--x-x-|--x-x-x-x-----------------------------------------|
E|-3-3-3-3-3-3--3-3-|--3-3-3-3---3----3--------------------------------|

e|---------------------------------------------------------------------|
B|---------------------------------------------------------------------|
G|-0--2-2-----0---0----------------------------------------------------|
D|-0--x-x----3---3------x2---------------------------------------------|
A|-x--1-1---1---1------------------------------------------------------|
E|-3-------------------------------------------------------------------|

Next the rock and roll part!
e|--------------3---3----3---3----3---3---3-------------------------|
B|-5-5-5-/-7----3h5-5----3h5-5----3h5-5---3-------------------------|
G|-5-5-5-/-7--------------------------------------------------------|
D|-5-5-5-/-7--------------------------------------------------------|
A|-3-3-3---5--------------repeat as necessary-----------------------|
E|------------------------------------------------------------------|


| /  slide up
| \  slide down
| h  hammer-on
| p  pull-off
| ~  vibrato
| +  harmonic
| x  Mute note
===============================================================================
            
Submit corrections

comments powered by Disqus
↑ Back to top | Vince Guaraldi Tabs for Linus And Lucy. Lyrics for acoustic guitar and electric guitar. Tablatures and chords are parodies/interpretations of the original songs. You may use it for private study, scholarship, research or language learning purposes only