>
 >
Linus And Lucy

Linus And Lucy Guitar Tabs

Vince Guaraldi - Linus And Lucy chords, tabs, tablatures, lyrics

Guitar lessons | Add/correct | Request | Top 50 tabs Artists:  A B C D E F G H I J K L M N O P Q R S T U V W X Y Z 0-9

Linus And Lucy Guitar Tabs – Vince Guaraldi

CD, Sheet music, Poster

Do you like Linus And Lucy? Share with your friends now
Bass TabsTabs
-------------------------------------------------------------------------------
			     Linus and Lucy  Charlie Brown
-------------------------------------------------------------------------------

Tuning: Standard

 This an easy version of the song, and it sounds great!  Watch for timings though!

e|--------------------------------------------------------------------|
B|--------------------------------------------------------------------|
G|-----0---0----------------------------------------------------------|
D|----0---0---0h2--0h2---------------x2-------------------------------|
A|--------------------------------------------------------------------|
E|---3---3---3----3---------------------------------------------------|

For part below, play once, then repeat only the beginning
e|------------------|--------------------------------------------------|
B|------------------|--------------------------------------------------|
G|-0-2-4-4-2-0--2-0-|--0-2-4-4-----------------------------------------|
D|-0-0-0-0-0-0--0-0-|--0-0-0-0----0h20h2------------------------------|
A|-x-x-x-x-x-x--x-x-|--x-x-x-x-----------------------------------------|
E|-3-3-3-3-3-3--3-3-|--3-3-3-3---3----3--------------------------------|

e|---------------------------------------------------------------------|
B|---------------------------------------------------------------------|
G|-0--2-2-----0---0----------------------------------------------------|
D|-0--x-x----3---3------x2---------------------------------------------|
A|-x--1-1---1---1------------------------------------------------------|
E|-3-------------------------------------------------------------------|

Next the rock and roll part!
e|--------------3---3----3---3----3---3---3-------------------------|
B|-5-5-5-/-7----3h5-5----3h5-5----3h5-5---3-------------------------|
G|-5-5-5-/-7--------------------------------------------------------|
D|-5-5-5-/-7--------------------------------------------------------|
A|-3-3-3---5--------------repeat as necessary-----------------------|
E|------------------------------------------------------------------|


| /  slide up
| \  slide down
| h  hammer-on
| p  pull-off
| ~  vibrato
| +  harmonic
| x  Mute note
===============================================================================





Comments


Popular Vince Guaraldi tabs & chords
Linus And Lucy Bass Tabs
Cast My Fate To The Wind Chords
Christmas Time Chords
Christmas Time 1 Chords
Christmas Time Tabs
Christmas Time 2 Tabs
Christmastime Is Here Tabs
O Tannenbaum Tabs
O Tannenbaum Intro Tabs
Christmas Time Ukulele


Song lyrics



↑ Back to top | Tablatures and chords are parodies/interpretations of the original songs. You may use it for private study, scholarship, research or language learning purposes only
© 2014 AZChords.com Contact us | Privacy policy | DMCA | Add/correct tabs | Request tabs | Top 50 tabs