» » »

Animation #14 Tabs (ver.2)

Artists:  A B C D E F G H I J K L M N O P Q R S T U V W X Y Z # 

Animation #14 Tabs (ver.2)

Video Games
Rating:
0/5 (0 votes)

Hard to play? Try these video lessons and learn fast.
                animation #07


Game Boy camera






e:-12--------12--------12-----------12--------12-------|
B:----12--------12--------12-----------12--------12----|
G:-------13--------13--------13--11-------11--------9--|
D:-----------------------------------------------------|
A:-----------------------------------------------------|
E:-----------------------------------------------------|

e:-12--------12--------12-----------12--------12-------|
B:----12--------12--------12-----------12--------12----|
G:-------13--------13--------13--11-------11--------9--|
D:-----------------------------------------------------|
A:-----------------------------------------------------|
E:-----------------------------------------------------|

e:--16-------19----------------------|
B:-----17-19----19-----17-19--21-19--|
G:------------------18---------------|
D:-----------------------------------|
A:-----------------------------------|
E:-----------------------------------|
            
Hard to play? Try these video lessons and learn fast. | Correct




comments powered by Disqus
↑ Back to top | Tablatures and chords are parodies/interpretations of the original songs. You may use it for private study, scholarship, research or language learning purposes only