» » »

Animation #14 Tabs (ver.1)

Artists:  A B C D E F G H I J K L M N O P Q R S T U V W X Y Z # 

Animation #14 Tabs (ver.1)

Video Games
Rating:
0/5 (0 votes)

Hard to play? Try these video lessons and learn fast.
                animation #05


Game Boy camera






e:-19-19-19-20p19-17-------------------------------------------------------------------|
B:-------------------18-17----17--18p17--------------17-18p17--------------------------|
G:-------------------------17-----------17----16--17----------19--17-------------------|
D:-----------------------------------------19------------------------19-------19-19-19-|
A:----------------------------------------------------------------------19h20----------|
E:-------------------------------------------------------------------------------------|

e:-19-19-19-20p19-17-------------------------------------------------------------------|
B:-------------------18-17----17--18p17--------------17-18p17--------------------------|
G:-------------------------17-----------17----16--17----------19--17-------------------|
D:-----------------------------------------19------------------------19-------19-19-19-|
A:----------------------------------------------------------------------19h20----------|
E:-------------------------------------------------------------------------------------|
            
Hard to play? Try these video lessons and learn fast. | Correct




comments powered by Disqus
↑ Back to top | Tablatures and chords are parodies/interpretations of the original songs. You may use it for private study, scholarship, research or language learning purposes only