» » »

Victoria Justice, Make It Shine Tabs (ver.2)

Artists:  A B C D E F G H I J K L M N O P Q R S T U V W X Y Z # 

Make It Shine Tabs (ver.2)

Victoria Justice Tabs
 Rating:
4/5 (4 votes)
Make It Shine lessons Tabs too difficult? Try these video lessons and learn fast
                Verse 1:
E-----------------------------|
B-----------------------------| 
G---/10-10-10-10-10-10-10-10--|(x7)        *The slide (/) only played the 1st time
D---/10-10-10-10-10-10-10-10--|             El slide (/) solo se toca la 1ª vez
A---/8--8--8--8--8--8--8--8---|
E-----------------------------|


Verse 2:
       P.M.--  -----   ----              P.M.--  -----   ---
E----------------------------------------------------------------|
B----------------------------------------------------------------|
G----10------10------10----10------------------------------------|
D----10------10------10----10---------10------10------10----10---|      |
A----8--8-8--8--8-8--8--8--8----------10------10------10----10---|      |
E-------------------------------------8--8-8--8--8-8--8--8--8----|      |
                                                                        |
                                                                        | (x2)
        P.M.---    -------    -----           P.M.--   ----   ---       |
E--------------------------------------------------------------------|  |
B--------------------------------------------------------------------|  | 
G--------------------------------------------------------------------|  | 
D----12---------12---------12------12-------8-------8-------8-----8--|      
A----12---------12---------12------12-------8-------8-------8-----8--|      
E----10--10-10--10--10-10--10--10--10-------6--6-6--6--6-6--6--6--6--|    



Chorus:
E------------------------------------------------|   |
B------------------------------------------------|   |
G----10------------------------------------------|   | (x4)
D----10-(x8)--10-(x8)--12-(x8)--8-(x8)-----------|   |
A----8--------10-------12-------8----------------|   |
E-------------8--------10-------6----------------|   |



    *<.<.Repeat everything from the beginning .>.>*
        ,,,Se repite todo desde el principio,,,


Bridge:
E---------------------------------------------|   |
B---------------------------------------------|   |
G---------------------------------------------|   | (x3)
D---------------------------------------------|   |
A---------------------------------------------|   |
E---8-8-8-10-10-10-10-5--6--6-6-13-13-13------|   |


E-----------------------------------|   |
B-----------------------------------|   |
G-----------------------------------|   | (x2)
D-----------------------------------|   |
A-----------------------------------|   |
E---13-(x8)-8-(x8)-10-(x8)-6-(x8)---|   |


Chorus:
E----------------------------------------------|   |
B----------------------------------------------|   |
G--10------------------------------------------|   | (x4)
D--10-(x8)--10-(x8)--12-(x8)--8-(x8)-----------|   |
A--8--------10-------12-------8----------------|   |
E-----------8--------10-------6----------------|   |
            
Submit corrections

comments powered by Disqus
↑ Back to top | Victoria Justice Tabs for Make It Shine. Lyrics for acoustic guitar and electric guitar. Tablatures and chords are parodies/interpretations of the original songs. You may use it for private study, scholarship, research or language learning purposes only