» » »

Victoria Justice, Make It Shine Tabs (ver.1)

Artists:  A B C D E F G H I J K L M N O P Q R S T U V W X Y Z # 

Make It Shine Tabs (ver.1)

Victoria Justice Tabs
 Rating:
3/5 (8 votes)
Make It Shine lessons Tabs too difficult? Try these video lessons and learn fast
1
                Verse:
E----------------------------|
B----------------------------| (x4)
G----------------------------|
D--15-15-15-15-15-15-15-15---|
A--15-15-15-15-15-15-15-15---|
E--13-13-13-13-13-13-13-13---|

That plays through the whole verse and the base does the rest, but when I'm playing 
I like to play the chorus while I sing the verses. Up to you.

Chorus:
E-------------------------------------------|
B-------------------------------------------|
G-------------------------------------------|
D--15-(x8)-10-(x8)-12-(x8)-8-(x8)-----------|
A--15------10------12------8----------------|
E--13------8-------10------6----------------|

Bridge:
E-------------------------------------------|
B-------------------------------------------|
G-------------------------------------------|
D-------------------------------------------|
A-------------------------------------------|
E-8-8-8-10-10-10-10-5--6--6-6-13-13-13-(1)--|

Chorus 2 (This isn't quite right but it's all I can hear):
E---------------------------------|
B---------------------------------|
G---------------------------------|
D---------------------------------|
A---------------------------------|
E-13-(x8)-8-(x8)-10-(x8)-6-(x8)---|

Last 8 count:
E---------------------------------|
B---------------------------------|
G---------------------------------|
D---------------------------------|
A---------------------------------|
E-13-(x8)-8-(x8)-10-(x8)-6-(x8)-1-|

And that's it! Lyrics if you want em:
Here I am
Once again
Felling lost but now and then

I breath it in, To let it go..

And you don't know where you are now
Or what it would come to
If only somebody could hear

When you figure out how
Your lost in the moment
You disappear

(Chorus)
You don't have to be afraid
To put your dream in action
Your never gonna fade
You'll be the main attraction

Not a fantasy
Just remember me
When it turns out right

Cause you know that if your living
Your imagination
Tomorrow you'll
Be everybody's fascination

In my victory, Just remember me
When I make it shine

(Shine)

Reaching high, Felling low
I'm holding on but letting go


I'd like to shine
I'll shine for you

And it's time to show the world how
It's a little bit closer
As long as I'm ready to go

All we have is right now
As long as you feel it inside you know

(Chorus)

Every one can tell you how
When it's all said and done
(Oh woah oh)
And harder times will change your mind
And make you want to run
(Oh woah oh)
But you want it
And you need it
Like you need to breath the air
If they doubt you
Just believe it
That's enough to get you there

(Chorus)
            
Submit corrections

comments powered by Disqus
↑ Back to top | Victoria Justice Tabs for Make It Shine. Lyrics for acoustic guitar and electric guitar. 1 Tablatures and chords are parodies/interpretations of the original songs. You may use it for private study, scholarship, research or language learning purposes only