» » »

Vice Squad, Last Rockers Tabs (ver.1)

Artists:  A B C D E F G H I J K L M N O P Q R S T U V W X Y Z # 

Last Rockers Tabs (ver.1)

Vice Squad Tabs
Rating:
0/5 (0 votes)
Last Rockers lessons Tabs too difficult? Try these video lessons and learn fast
                ----------------------Last Rockers--------------------------
----------------------By VICE SQUAD-------------------------

Intro
                              x4  
e|--------------------------------|-------------------------------------------|
B|--------------------------------|-------------------------------------------|
G|--------------------------------|-------------------------------------------|
D|-2-2----2--3--2-2----2-3-2------|-5-5-5-5-5-5-5-5-5-5-5-5-5-5-5-5--7--------|
A|-0-0--3-------0-0--3-------3-2--|-5-5-5-5-5-5-5-5-5-5-5-5-5-5-5-5--7--------|
E|--------------------------------|-3-3-3-3-3-3-3-3-3-3-3-3-3-3-3-3--5--------|
                                    PM.............................
Verse
                                       x4
e|--------------------------------------------|-----------------|
B|--------------------------------------------|-----------------|
G|-7-7-7-7--10-10-10-10-----------------------|-----------------|
D|-7-7-7-7--10-10-10-10-10-10-10-10--9-9-9-9--|-5-5-5-5-5-5-5-5-|
A|-5-5-5-5--8--8--8--8--10-10-10-10--9-9-9-9--|-5-5-5-5-5-5-5-5-|
E|----------------------8--8--8--8---7-7-7-7--|-3-3-3-3-3-3-3-3-|

                                        x4
e|-------------------------------------------|----------------|
B|-------------------------------------------|----------------|
G|------------------7-7-7-7--10-10-10-10-10--|-8-8-8-8--9--7--|
D|------------------7-7-7-7--10-10-10-10-10--|-8-8-8-8--9--7--|
A|-7-7-7-7-7-7-7-7--5-5-5-5--8--8--8--8--8---|-6-6-6-6--7--5--|
E|-5-5-5-5-5-5-5-5---------------------------|----------------|
   PM.............

Outro
e|----------------------------------------------|
B|----------------------------------------------|
G|----------------------------------------------|
D|-2-2----2--3--2-2----2-3-2------2-2----2--3---|
A|-0-0--3-------0-0--3-------3-2--0-0--3--------|
E|----------------------------------------------|
            
Submit corrections

comments powered by Disqus
↑ Back to top | Vice Squad Tabs for Last Rockers. Lyrics for acoustic guitar and electric guitar. Tablatures and chords are parodies/interpretations of the original songs. You may use it for private study, scholarship, research or language learning purposes only