» » »

Vice Squad, Last Rockers Tabs (ver.3)

Artists:  A B C D E F G H I J K L M N O P Q R S T U V W X Y Z # 

Last Rockers Tabs (ver.3)

Vice Squad Tabs
Rating:
0/5 (0 votes)
Last Rockers lessons Tabs too difficult? Try these video lessons and learn fast
                Band: Vice Squad

Intro
e:-----------------------------|
B:-----------------------------|
G:-----------------------------|
D:-----------------------------| 4x
A:-77---7-8^---77---7-8-7------|
E:-55-8--------55-8-------8-7--|

e:--------------------|
B:--------------------|
G:--------------------|
D:-555555555555555-7--|
A:-555555555555555-7--|
E:-333333333333333-5--|
   ......pm.......


Verse
e:-------------------------|
B:-------------------------|
G:-------------------------|
D:----------7777-10101010--| 4x
A:-77777777-5555--8-8-8-8--|
E:-55555555----------------|
   ...pm...

e:------------|
B:------------|
G:------------|
D:-8888888-7--|
A:-6666666-5--|
E:------------|

Chorus
e:------------------------------|
B:------------------------------|
G:------------------------------|
D:-7777-10101010----------------| 4x
A:-5555--8-8-8-8-10101010-9999--|
E:----------------8-8-8-8-7777--|

e:-----------|
B:-----------|
G:-----------|
D:-----------|
A:-55555555--|
E:-33333333--|

Bridge 1
e:--------------------------------------------------------------------|
B:--------------------------------------------------------------------|
G:--------------------------------------------------------------------|
D:-7-7-7-7-7-7-7-7-1010101010101010-----------------------------------| 3x
A:-5-0-5-0-5-0-5-0--8-0-8-0-8-0-8-0-1010101010101010-9-9-9-9-9-9-9-9--|
E:-----------------------------------8-0-8-0-8-0-8-0-7-0-7-0-7-0-7-0--|
   ...............................pm................................

e:------------------------------------------|
B:------------------------------------------|
G:------------------------------------------|
D:-7-7-7-7-7-7-7-7-1010101010101010---------|
A:-5-0-5-0-5-0-5-0--8-0-8-0-8-0-8-0-10-9-7--|
E:-----------------------------------8-7-5--|
   ...............pm................

Breakdown 2
e:------------------------------------------------------------------|
B:------------------------------------------------------------------|
G:------------------------------------------------------------------|
D:------------------------------------------------------------------| 2x
A:-5-0-5-0-5-0-5-0-8-0-8-0-8-0-8-0-3-0-3-0-3-0-3-0-2-0-2-0-2-0-2-0--|
E:------------------------------------------------------------------|

e:------------------------------|
B:------------------------------|
G:------------------------------|
D:-7---7-10---10----------------|
A:-5---5--8----8-10---10-9---9--|
E:----------------8----8-7---7--|

Outro
e:-------------------------------------|
B:-------------------------------------|
G:-------------------------------------|
D:-------------------------------------|
A:-77---7-8^--77---7-8-7-----7---7-8^--|
E:-55-8-------55-8-------8-7-5-8-------|


Song Order
Intro
Chorus
Verse
Chorus
Verse
Breakdown 1
Chorus
Verse
Chorus
Breakdown 2
Outro


Strumming varies depending on your style of playing....
Reason why it's not in correct strumming....
To each his own....
But this is about 100% correct....
Still open for suggestions....
So feel free to comment....
            
Submit corrections

comments powered by Disqus
↑ Back to top | Vice Squad Tabs for Last Rockers. Lyrics for acoustic guitar and electric guitar. Tablatures and chords are parodies/interpretations of the original songs. You may use it for private study, scholarship, research or language learning purposes only