» » »

Vibrators, Baby Baby Tabs (ver.1)

Artists:  A B C D E F G H I J K L M N O P Q R S T U V W X Y Z # 

Baby Baby Tabs (ver.1)

Vibrators Tabs
Rating:
4/5 (1 vote)
Baby Baby lessons Tabs too difficult? Try these video lessons and learn fast
                (Intro)
The Vibrators - Baby, Baby
Tuning : Standard
NOTE : Some parts might be off but thats just how i play it.

INTRO
E--------------------------------------------------------------------------|
B--------------------------------------------------------------------------|
G------7---------4-----------6---------------------------------------------|
D--------9---------5-------7---7---7-x12-----------------------------------|
A----9---------5---------7-------7-----------------------------------------|
E--7---------3---------5---------------------------------------------------|

VERSE
E--9--------11----11------------------------------------------------------|
B---10---9----12----12----------------------------------------------------|
G-----9---9-----11----11---4x---------------------------------------------|
D----------9--------------------------------------------------------------|
A-------------------------------------------------------------------------|
E-------------------------------------------------------------------------|

CHORUS
E-------------------------------------------------------------------------|
B-------------------------------------------------------------------------|
G-------------------------------------------------------------------------|
D--9-------------------------------x3---9---------------------------------|
A--7--7--9--11-11-9-9-7h9p7---7---------7--7--9-9-9-9-9-9-9---------------|
E-----5--7------------------9--------------5--7-7-7-7-7-7-7---------------|

VERSE
E--9--------11----11------------------------------------------------------|
B---10---9----12----12----------------------------------------------------|
G-----9---9-----11----11---4x---------------------------------------------|
D----------9--------------------------------------------------------------|
A-------------------------------------------------------------------------|
E-------------------------------------------------------------------------|

CHORUS
E-------------------------------------------------------------------------|
B-------------------------------------------------------------------------|
G-------------------------------------------------------------------------|
D--9-------------------------------x3---9---------------------------------|
A--7--7--9--11-11-9-9-7h9p7---7---------7--7--9-9-9-9-9-9-9---------------|
E-----5--7------------------9--------------5--7-7-7-7-7-7-7---------------|

SOLO
E-------------------------------------------------------------------------|
B-------------------------------------------------------------------------|
G-------------------------------------------------------------------------|
D-------------------------------------------------------------------------|
A------7h9-7-----4h5-4-------6-7--9/11------------------------------------|
E-/9-9-------5-5---------7-7----------------------------------------------|

E-------------------------------------------------------------------------|
B---------------------------------------------------------------------12b-|
G-------------------------------------------------------------9---11b-----|
D----------------------------------------------------9-11-9-11--11--------|
A------7h9-7-----4h5-4----6-7/9-7-6h7-6-------9h11-9----------------------|
E-/9-9-------5-5---------7--------------7-/9-9----------------------------|

- anarchoalan
            

comments powered by Disqus
↑ Back to top | Vibrators Tabs for Baby Baby. Lyrics for acoustic guitar and electric guitar. Tablatures and chords are parodies/interpretations of the original songs. You may use it for private study, scholarship, research or language learning purposes only