» » »

Baby Baby Tabs (ver.2)

Artists:  A B C D E F G H I J K L M N O P Q R S T U V W X Y Z # 

Baby Baby Tabs (ver.2)

Vibrators
Rating:
3/5 (2 votes)

Hard to play? Try these video lessons and learn fast.
                kick ass song,.....but i couldn't find it anywhere so i thought i'd just tab it myself......
INTRO
E-----------------------------------------------------------------------------------|
B------5---------2----------4-------------------------------------------------------|
G--------6---------2------4---4--4--------------------------------------------------|
D----6---------2--------4------4----x12---------------------------------------------|
A--4---------0--------2-------------------------------------------------------------|
E-----------------------------------------------------------------------------------|
this plays when he starts to sing......
E---------------------------------------------------------------------------------|
B---------------------------------------------------------------------------------|
G--6--2--4------------------------------------------------------------------------|
D--6--2--4---x4-------------------------------------------------------------------|
A--4--0--2------------------------------------------------------------------------|
E---------------------------------------------------------------------------------|
CHORUS
E------------------------------------------------------------------|
B------------------------------------------------------------------|
G--9--2--4----------------------------------9--2--4-4-4-4-4-4-4-4--|
D--9--2--4---------------------------x3-----9--2--4-4-4-4-4-4-4-4--|
A--7--0--2-----11-11-9-9-7h9p7----7---------7--0--2-2-2-2-2-2-2-2--|
E-------------------------------9----------------------------------|
SOLO............
E---------------------------------------------------------------------------|
B---------------------------------------------------------------------------|
G---------------------------------------------------------------------------|
D---------------------------------------------------------------------------|
A------7h9p7---------4h5p4--------6---9-11\---------------------------------|
E--7-7-------9---5-5-------5--7-7---7---------------------------------------|

E---------------------------------------------------------------------------|
B---------------------------------------------------------------------------|
G------------------------------------------------------------------9---11b--|
D---------------------------------------------------------9-11-9-11--11-----|
A------7h9p7---------4h5p4-------6-7-9-7-6h7p6-----9h11p9-------------------|
E--7-7-------9---5-5-------5---7---------------7-9--------------------------|
rest of solo......coming soon
                          -touchdownboy
            
Hard to play? Try these video lessons and learn fast. | Correct




comments powered by Disqus
↑ Back to top | Tablatures and chords are parodies/interpretations of the original songs. You may use it for private study, scholarship, research or language learning purposes only