» » »

Colorful Tabs (ver.3)

Artists:  A B C D E F G H I J K L M N O P Q R S T U V W X Y Z # 

Colorful Tabs (ver.3)

Verve Pipe
Rating:
0/5 (0 votes)

Tabs too difficult? Try these video lessons and learn fast.
                
/=slide
h=hammer on
p=pick off

Solo:
e|-----------------------7-----------------------------------|
B|---------10~~------------10~-------------------------------|
G|--/6-7-9--------/6-7-9---------6h7p6~--6--7--6-----6-------|
D|------------------------------------------------9-----7~---|
A|-----------------------------------------------------------|
E|-----------------------------------------------------------|


e|-----------------------7----9h10p9--9-10-10/12---------|
B|---------10~~------------10--------------------10~~----|
G|--/6-7-9--------/6-7-9---------------------------------|
D|-------------------------------------------------------|
A|-------------------------------------------------------|
E|-------------------------------------------------------|

Thats it. But play this to back it up if another guitar is available:

e|----------|
B|----------|
G|----------|
D|--9-7-9-7-| Over and over throughout
A|----------|
E|----------|
            
Tabs too difficult? Try these video lessons and learn fast.


comments powered by Disqus
↑ Back to top | Tablatures and chords are parodies/interpretations of the original songs. You may use it for private study, scholarship, research or language learning purposes only