» » »

1229 Sheffield Tabs (ver.1)

Artists:  A B C D E F G H I J K L M N O P Q R S T U V W X Y Z # 

1229 Sheffield Tabs (ver.1)

Verve Pipe
Rating:
0/5 (0 votes)

Hard to play? Try these video lessons and learn fast.
                This song appeared on the clay pigeons soundtrack, and later on Brian Vander Ark's
debut solo album, "Resurrection."  Word is it may be redone for the expected 2006
release of a new TVP album
Anyway, here's 1229 Sheffield:


e-----------------------------------------|
b-----------------------------------------|
G-----------------------------------------|
D-------1---------1---------1---------1---|
A-----2---2-----2---2-----2---2-----2---2-|
E-0-2-------0-2-------0-2-------0-2-------|
Another day of deflating your face into

e-----------------------------------------|
b-----------------------------------------|
G-------1---------1-----------------------|
D-----2---2-----2---2-------2---------2---|
A---2---------2-----------3---3-----3---3-|
E-0---------0---------0-3-------0-3-------|
  tears

e-----------------------------------------|
b-----------------------------------------|
G-----------------------------------------|
D-------1---------1---------1---------1---|
A-----2---2-----2---2-----2---2-----2---2-|
E-0-2-------0-2-------0-2-------0-2-------|
I shook your mood with a game and a bottle of

e-----------------------------------------|
b-----------------------------------------|
G-------1---------1-----------------------|
D-----2---2-----2---2-------2---------2---|
A---2---------2-----------3---3-----3---3-|
E-0---------0---------0-3-------0-3-------|
  beer                 the day I fell

e-----------------------------------------|
b-----------------------------------------|
G-----------------------------------------|
D-------1---------1---------1---------1---|
A-----2---2-----2---2-----2---2-----2---2-|
E-0-2-------0-2-------0-2-------0-2-------|
off of the wagon you threw your hands up in disgust

e-----------------------------------------|
b-----------------------------------------|
G-------1---------1-----------------------|
D-----2---2-----2---2-------2---------2---|
A---2---------2-----------3---3-----3---3-|
E-0---------0---------0-3-------0-3-------|

     G              F#              B
-----3--------------2---------------2----|
-----3--------------2---------------4----|
-----0--------------3---------------4----|
-----0--------------4---------------4----|
-----2--------------4---------------2----|
-----3--------------2---------------2----|
once again you just get the best of me

Those chords there are the end persist through the song, while the intro tab continues
to carry the rhythm.  Very cool song, fun to play.  enjoy!

Drew
            
Hard to play? Try these video lessons and learn fast. | Correct




comments powered by Disqus
↑ Back to top | Tablatures and chords are parodies/interpretations of the original songs. You may use it for private study, scholarship, research or language learning purposes only