» » »

Veruca Salt, Straight Tabs (ver.1)

Artists:  A B C D E F G H I J K L M N O P Q R S T U V W X Y Z # 

Straight Tabs (ver.1)

Veruca Salt Tabs
 Rating:
4/5 (4 votes)
Straight lessons Tabs too difficult? Try these video lessons and learn fast
                'Straight' (Louise Post)
Veruca Salt, 'Seether' single & 'Eight Arms To Hold You' album

intro and 'chorus'

E ----------------------- |          --------|
B ----------------------- |          --------|
G --2--------4--------2-- |  x3 then --------|
D --2--4--4--4--4--4--2-- |          --4--5--|
A --0--4--4--2--4--4--0-- |          --4--5--|
E -----2--2-----2--2----- |          --2--3--|
       M  M     M  M                   M       = mute

    A  F# F# B  F# F# A                F# G

'verse'

E -----------|
B -----------|
G -----4--7--|
D --4--4--7--|
A --4--2--5--|
E --2--------|

    F# B  D

Note that these are just the shapes of the chords -- you'll have to work out
the rhythm for yourself!

Ho hum, up yer bum

Two words -- Phil
-----------------------------------
Phil Glanville
Division of Biodiversity & Ecology
University of Southampton
UK

-----------------------------------
            
Submit corrections

comments powered by Disqus
↑ Back to top | Veruca Salt Tabs for Straight. Lyrics for acoustic guitar and electric guitar. Tablatures and chords are parodies/interpretations of the original songs. You may use it for private study, scholarship, research or language learning purposes only