>
 >
With David Bowie

With David Bowie Guitar Tabs

Veruca Salt - With David Bowie chords, tabs, tablatures, lyrics

Guitar lessons | Add/correct | Request | Top 50 tabs Artists:  A B C D E F G H I J K L M N O P Q R S T U V W X Y Z 0-9

With David Bowie Guitar Tabs – Veruca Salt

CD, Sheet music, Poster

Do you like With David Bowie? Share with your friends now
Tabs
With David Bowie-Veruca Salt
Album : Eight Arms To Hold You

E A D G B E


Intro: Fig 1. (Gtr 1.)

e-----------------------------------------------------------------
b-----------------------------------------------------------------
g---------2-2--7-(7)--7--5-5---5----------2-2--7-(7)--7--5-5---5--
d-2--2-2--2-2--7-(7)--7--5-5---5--2--2-2--2-2--7-(7)--7--5-5---5--
a-2--2-2--0-0--5-(5)--5--3-3---3--2--2-2--0-0--5-(5)--5--3-3---3--
e-0--0-0--------------------------0--0-0--------------------------

Riff A (Gtr 2.)

e-----------------------------------------------------------------
b-9-9h10-10---------7-8p7-7h8p7--/9--9h10-10--------8-8-8-8p7-----
g-----------9--7-(7)------------7-----------9--7-(7)----------7---
d-----------------------------------------------------------------
a-----------------------------------------------------------------
e-----------------------------------------------------------------

Gtr 1.

e-----------------------------------------------------------------
b-----------------------------------------------------------------
g---------2-2--7-(7)--7--5-5---5--4-4-4-4-4-4-4-4-4-4-4-4-4-4-4-4-
d-2--2-2--2-2--7-(7)--7--5-5---5--4-4-4-4-4-4-4-4-4-4-4-4-4-4-4-4-
a-2--2-2--0-0--5-(5)--5--3-3---3--2-2-2-2-2-2-2-2-2-2-2-2-2-2-2-2-
e-0--0-0----------------------------------------------------------

Gtr 2.

e-----------------------------------------------------------------
b-9-9h10-10---------7-8p7-7h8p7---------------------------9h10p9--
g-----------9--7-(7)------------7--h8~~~~-8-6-8/11(11)----------11
d------------------------------------------------------9----------
a-----------------------------------------------------------------
e-----------------------------------------------------------------

Verses 1 & 2

x2
e-----------------------------------------------------------------
b-----------------------------------------------------------------
g------------2-2--2--2-2--7-7--7--7-7----------9-(9)-9--9--9------
d-2--2--2-2--2-2--2--2-2--7-7--7--7-7--5-5-5-x-9-(9)-9--9--9------
a-2--2--2-2--0-0--0--0-0--5-5--5--5-5--5-5-5-x-7-(7)-7--7--7------
e-0--0--0-0----------------------------3-3-3-x--------------------

Chorus:

e-----------------------------------------------------------------
b-----------------------------------------------------------------
g-7-----------9--9----7----7--7-----------9--9----7----7--7-------
d-7---7--7----9--9----7----7--7---7--7----9--9----7----7--7-------
a-5---7--7----7--7----5----5--5---7--7----7--7----5----5--5-------
e-----5--5------------------------5--5----------------------------

e-----------------------------------------------------------------
b-----------------------------------------------------------------
g-7-----------9-9--9-------------7--7-7----------9--7-------------
d-7---7--7----9-9--9----9-9--9---7--7-7---7-(7)--9--7-------------
a-5---7--7----7-7--7----9-9--9---5--5-5---7-(7)--7--5-(let-ring)--
e-----5--5--------------7-7--7------------5-(5)-------------------

Bridge:

x2
pm
e-----------------------------------------------------------------
b-7-7-7-7-7-7-7-----------------7-7-7-7-7-7-7-7-------------------
g-7-7-7-7-7-7-7-6-6-6-6-5-5-----7-7-7-7-7-7-7-7-6-6-6-6-5-5-----7-
d-7-7-7-7-7-7-7-7-7-7-7-5-5-5-5-7-7-7-7-7-7-7-7-7-7-7-7-5-5-5-5-7-
a-5-5-5-5-5-5-5-7-7-7-7-3-3-5-5-5-5-5-5-5-5-5-5-7-7-7-7-3-3-5-5-5-
e---------------5-5-5-5-----3-3-----------------5-5-5-5-----3-3---

e-----------------------------------------------------------------
b-----------------------------------------------------------------
g---------------3-3---3---3---3-8-8---8---8---8-5---5-5-5-5-5-5-5-
d-3---3---3---3-3-3---3---3---3-8-8---8---8---8-5---5-5-5-5-5-5-5-
a-3---3---3---3-1-1---1---1---1-6-6---6---6---6-3---3-3-3-3-3-3-3-
e-1---1---1---1---------------------------------------------------

Gtr 2.

e-----------------------------------------------------------------
b-10------11br----11------11br----8-----11br----8---------------6-
g-----10--------------10-------------8----------------------------
d-----------------------------------------------------------------
a-----------------------------------------------------------------
e-----------------------------------------------------------------

3rd Verse:

e-----------------------------------------------------------------
b-----------------------------------------------------------------
g---------------3-3---3---3-3-------------------------10---101010-
d-3---3---3-3---3-3---3---3-3---6-6---6---6-6---6--6-x10---101010-
a-3---3---3-3---1-1---1---1-1---6-6---6---6-6---6--6-x-8----8-8-8-
e-1---1---1-1-------------------4-4---4---4-4---4--4-x------------

e-----------------------------------------------------------------
b-----------------------------------------------------------------
g---------------3-3---3---3-3---8--8-7-8-7-8-7-8-5-5-8-810-1010-8-
d-3---3---3-3---3-3---3---3-3---8--8-7-8-7-8-7-8-5-5-8-810-1010-8-
a-3---3---3-3---1-1---1---1-1---6--6-5-6-5-6-5-6-3-3-6-6-8--8-8-6-
e-1---1---1-1-----------------------------------------------------

Chorus:

e-----------------------------------------------------------------
b-----------------------------------------------------------------
g-----------------------------------------------------------------
d-8--------------------8---8--8--8--------------------8---8--8----
a-6-----8-8-----8-8----6---6--6--6-----8-8-----8-8----6---6--6----
e-------6-6-----6-6--------------------6-6-----6-6----------------

e-----------------------------------------------------------------
b-----------------------------------------------------------------
g-----------------------------------------------------------------
d-8------------1010-10----------------8--8-8--------10---8--------
a-6-----8-8-----8-8--8---10-10--10----6--6-6---8-8---8---6--------
e-------6-6---------------8--8---8-------------6-6----------------

e-----------------------------------------------------------------
b-----------------------------------------------------------------
g-----------------------------------------------------------------
d-8--8----------10---8--8-8----------10---8--8-8-8-8-8-8-810------
a-6--6-----8-8---8---6--6-6-----8-8---8---6--6-6-6-6-6-6-6/8------
e----------6-6------------------6-6-------------------------------

thatís all

trevor jones





Comments


Popular Veruca Salt tabs & chords
Used To Know Her 1 Bass Tabs
New York Mining Disaster 1996 Chords
Straight Chords
Don't Make Me Prove It Tabs
Loneliness Is Worse Tabs
Shimmer 1 Tabs
Straight 1 Tabs
Twinstar 1 Tabs
Victrola Tabs
Volcano Girls Ukulele


Song lyrics



↑ Back to top | Tablatures and chords are parodies/interpretations of the original songs. You may use it for private study, scholarship, research or language learning purposes only
© 2014 AZChords.com Contact us | Privacy policy | DMCA | Add/correct tabs | Request tabs | Top 50 tabs