>
 >
Spiderman '79

Spiderman '79 Guitar Tabs

Veruca Salt - Spiderman  '79 chords, tabs, tablatures, lyrics

Guitar lessons | Add/correct | Request | Top 50 tabs Artists:  A B C D E F G H I J K L M N O P Q R S T U V W X Y Z 0-9

Spiderman '79 Guitar Tabs – Veruca Salt

CD, Sheet music, Poster

Do you like Spiderman '79? Share with your friends now
Drum TabsTabs
Spiderman '79 by Veruca Salt (written by Louise Post) from American 

*Riff 1
e-------------------------------------------------|
B-------------------------------------------------|
G-------------------------------------------------|
D-------7--7--7--7--7-s-4--4--4--4--4--4----------|
A-------7--7--7--7--7-s-4--4--4--4--4--4----------|
E-5--5--5--5--5--5--5-s-2--2--2--2--2--2--0--1--1-|
									*end of Riff 1
e------------------------------------|
B------------------------------------|
G------------------------------------|
D-3--3--3--3--3--3--3--3--3--3--3--3-|
A-3--3--3--3--3--3--3--3--3--3--3--3-|
E-1--1--1--1--1--1--1--1--1--1--1--1-|

*Riff 2
e--------------------------------------------------------|
B--------------------------------------------------------|
G--------------------------------------------------------|
D--7--7--7--7--7---------4--4--4--4--------3--3--3--3----|
A--7--7--7--7--7---------4--4--4--4--------3--3--3--3----|
E--5--5--5--5--5-s-2--2--2--2--2--2--1--1--1--1--1--1--0-|
		You're so nice, you tie me in a web         and
				   *end of Riff 2
e------------------|
B------------------|
G------------------|
D-2--2--2--2--2--2-|
A-2--2--2--2--2--2-|
E-0--0--0--0--0--0-|
cradle me till dawn

Riff 2: You're so deadly that I can see your breath beneath
        me when you're gone
Riff 2: You're so windy I'd like to pin you down, and tack 
        you to the wall

*       Riff 3   	  *
e---------------------|
B---------------------|
G-7--7--7--7--7--7--7-|
D-7--7--7--7--7--7--7-|
A-5--5--5--5--5--5--5-|
E-5--5--5--5--5--5--5-|
						Spiderman
*				Riff 4							  *
e--------------------------------------------------|
B--------------------------------------------------|
G------------------------9--------------7--7--7--7-|
D-7---7--7--7-s-10-s-11--9--5--5--5--5--7--7--7--7-|
A-7---7--7--7-s-10-s-11--7--5--5--5--5--5--5--5--5-|
E-5---5--5--5-s-8--s-9------3--3--3--3-------------|
										 Spiderman
Riff 4: 2x
Riff 1
Riff 2: Spider sunday you blaze up from the south with 
        oil on your hands
Riff 2: I'm streaked in grease and grime and idlemouths
        you spoiled all my plans
Riff 3: Spiderman
Riff 4: 3x

*Riff 5
e------------------------------------------------------|
B------------------------------------------------------|
G------------------------------------------------------|
D-7--7--7--7-s-10-s-11-10-s-11-14--14--14--14-s-17--17-|
A-7--7--7--7-s-10-s-11-10-s-11-14--14--14--14-s-17--17-|
E-5--5--5--5-s-8--s-9--8--s-9--12--12--12--12-s-15--15-|
										    I     can't
										   (end Riff 5)*
e------------------------------------------------------|
B------------------------------------------------------|
G------------------------------------------------------|
D-17--17--17-s-12--12--12--12--12--12--12--12--12-s-14-|
A-17--17--17-s-12--12--12--12--12--12--12--12--12-s-14-|
E-15--15--15-s-10--10--10--10--10--10--10--10--10-s-12-|
       take     more                       of  that

Riff 5: I can't take more of that (3x)

e----------------------------------------------------------|
B----------------------------------------------------------|
G-------------------------7--7--7--7--7--7--7--7--7--7-s-9-|
D-2--2--2--5--5--5--5--5--7--7--7--7--7--7--7--7--7--7-s-9-|
A-2--2--2--5--5--5--5--5--5--5--5--5--5--5--5--5--5--5-s-7-|
E-0--0--0--3--3--3--3--3--5--5--5--5--5--5--5--5--5--5-s-7-|

e----------------------------------|
B----------------------------------|
G-9--9--9--9--9--9--9--9--9------9-|
D-9--9--9--9--9--9--9--9--9------9-|
A-7--7--7--7--7--7--7--7--7------7-|
E-0--0--0--0--0--0--0--0--0--------|


B-10--10--p--9-p-8-p--7----10--10-----12--12b--12-p-10-s-6-|


B-6---8--8-s-6--6-s-5--5------5-s-10--10--p--9-p-8-p--7----|


e----------------------------------------10----------------|
B--10-----10b-----12---12b------12-p-10-----------9---10---|


B--10---10-s-8---8-------6---6-s-5---5---------------------|

Riff 2: Tiny truckstop, you lay me in a towel, and savor me
        like a lamb
Riff 2: You smell of corduroy and lemondrops, and reds 
        pulled from a can
Riff 2: I dream in black and white, I've long forgot exactly
        who I am
Riff 3: A spiderman
Riff 4: 7x





Comments


Popular Veruca Salt tabs & chords
Used To Know Her Bass Tabs
Volcano Girls Bass Tabs
Get Back Chords
Wolf Chords
All Hail Me Tabs
Don't Make Me Prove It Tabs
Number One Blind 1 Tabs
Seether 1 Tabs
Benjamin Ukulele
One More Page Of Insincerity Ukulele


Song lyrics



↑ Back to top | Tablatures and chords are parodies/interpretations of the original songs. You may use it for private study, scholarship, research or language learning purposes only
© 2014 AZChords.com Contact us | Privacy policy | DMCA | Add/correct tabs | Request tabs | Top 50 tabs