» » »

Celebrate You Tabs (ver.1)

Artists:  A B C D E F G H I J K L M N O P Q R S T U V W X Y Z # 

Celebrate You Tabs (ver.1)

Veruca Salt
Rating:
0/5 (0 votes)

Tabs too difficult? Try these video lessons and learn fast.
                Hey! This is another great song from veruca salt. This one was written by louise 
post & comes off their first album amerian thighs. It's in standard tuning and not 
too difficult. Sorry for the lengthiness of it, couldn't be avoided. 

Intro
E|-------------------------------------------------
A|-------------------------------------------------
D|--0---0-------0-----0---0--------0------------    4x
G|----2------------3-----3-------------2/3/2---
B|-------------------------------------------------
E|-----------2------------------2-----------------

then.......
E|--5----5----6----3                  
A|--5----7----8----5          I won't write out the strumming pattern for this part
D|--7----7----8----5          or the verses!!!!!
G|--------------------
B|--------------------
E|--------------------

Verse 1 & 2
E|--5---5---6---3---5--|---5---6---3---5--|---5---6---3---5--|--5--6--1--3--5--|
A|--5---7---8---5---5--|---7---8---5---5--|---7---8---5---5--|--7--8--3- 5--7--|
D|--7---7---8---5---7--|---7---8---5---7--|---7---8---5---7--|--7--8--3- 5--7--|

Chorus
E|--6--3--5--6------3--5--6-------3--5--6-------3--6
A|--8--5- 7--8------5--7--8-------5--7--8-------5--8
D|--8--5- 7--8------5--7--8-------5--7--8-------5--8

Bridge  (and in the dream)
E|8----------6-----1-------------4---6-----------8-------------6-----1--------
A|---10--------8\---3-------------6-----8/10------10-----------8\----3-----
D|-------8-------------3---------------------------------10-----------------1--
G|---------9--------------2/-5------------------------------9----------------5-

E|--4---6-----------8--------------6----1--------------4---6--------
A|----6----8/-10-----10-------------8\---3-------------6-----8----
D|------------------------8--------------------1-------------------6--
G|---------------------------9/-7----------------2/-5---------------

E|8----------6------1---------4---6------------8-----------6-----1--------------
A|---10---------8\----3--------6-----8/-10-----10----------8/----3-----------
D|------8-----------------1----------------------------8---------------2---------
G|---------9-----------------2----------------------------9---------------2/-5--

E|----4---1-----------
A|------6----3/-6----
D|---------------------
G|---------------------

Verse 3
E|--8--6--1--5--6--8-|-6--1--5--6--8-|-6--1--5--6--8-|-6--1--5-|
A|- 7--8--3--7--8- 7-|-8--3--7--8- 7-|-8--3--7--8- 7-|-8--3--7-|
D|- 7--8--3--7--8- 7-|-8--3--7--8- 7-|-8--3--7--8- 7-|-8--3--7-|

outro type thing (tonight my nightgown) is the same as the intro

2nd part of outro (I'll keep searching here for you)
E|--5---5---6---3---5--|---5---6---3---5--|
A|--5---7---8---5---5--|---7---8---5---5--|
D|--7---7---8---5---7--|---7---8---5---7--|
 
Structure:
intro 
verse 1
chorus
verse 2
chorus
bridge
verse 3
outro
            
Tabs too difficult? Try these video lessons and learn fast.


comments powered by Disqus
↑ Back to top | Tablatures and chords are parodies/interpretations of the original songs. You may use it for private study, scholarship, research or language learning purposes only