» » »

Vertical Horizon, Forever Tabs (ver.2)

Artists:  A B C D E F G H I J K L M N O P Q R S T U V W X Y Z # 

Forever Tabs (ver.2)

Vertical Horizon Tabs
 Rating:
4/5 (4 votes)
Forever lessons Tabs too difficult? Try these video lessons and learn fast
                
Tuning: D G C F A D (Full-step down)



Intro:

--x---------------------2-----------3--|
--3-2^3--2^3---2^3--2^3-2^3-2^3-2^3-3--|
--x-0-0--0-0---2-2--2-2-2---2-2-2-2-0--|
--5---0----0-0---0----0-4-----4---4-0--|
--5----------x----------2-----------2--|
-------------3----------------------3--|

--------x----------------------------------------|
-----x--x---x----x-x-----------------------------|
--xx-7/11--11^9--9-7-x----x---7-x--------6-7-----|
--xx-x--x---x----x-x-5~---7/9---7^9~--(9)----5~--|
--xx----x------------x----x-----x----------------|
-------------------------------------------------|



Original Verse:

--3----3----0----|
--3----3----2----|
--0----2----2----|
--0----0----2----|
--2---------0----|
--3--------------|



How I play it:

----3-----3--0------0--|
----3-----3--2-----^0--|
----0---2-2--2------2--|
--0-0---0-0--2------2--|
--x-x---x----0------0--|
--3-3---x--------------|



Pre-chorus:

--2---------0----|
--3----0----0----|
--2----4----6----|
--4----5----7----|
--2----5----7----|
-------3----5----|



Original Chorus:

--2----3----2----3----|
--3----3----3----3----|
--2----0----2----0----|
--0----0----4----0----|
-------2----2----2----|
-------3---------3----|



How I play it:

--2--0--x----2--0-------|
--3--3--3----3--3--3----|
--2--2--0----2--2--0----|
--0--0--0----4--4--0----|
--------x----2--2--x----|
--------3----------3----|



Bridge:

--2----2----0----3----|
--3----3----0----3----|
--2----2----0----0----|
--0----4----2----0----|
-------2----2----2----|
------------0----3----|

--0----2----3----0----|
--3----3----3----2----|
--2----2----0----2----|
--2----4----0----2----|
--0----2----2----0----|
------------3---------|
            
Submit corrections

comments powered by Disqus
↑ Back to top | Vertical Horizon Tabs for Forever. Lyrics for acoustic guitar and electric guitar. Tablatures and chords are parodies/interpretations of the original songs. You may use it for private study, scholarship, research or language learning purposes only