» » »

Forever Tabs (ver.1)

Artists:  A B C D E F G H I J K L M N O P Q R S T U V W X Y Z # 

Forever Tabs (ver.1)

Vertical Horizon
Rating:
4/5 (2 votes)

Hard to play? Try these video lessons and learn fast.
                ----------------------------------------------------------------------------
----------------------------------------------------------------------------

These are the chords needed to play the song.  Listen to the album for strumming.

Suggestions always welcome.  More VH to come......


TUNING: DOWN 1 & 1/2 STEP
(C#-F#-B-E-G#-C#)

Intro and Chorus (chords implied below)

c#-----0--------0--------0--------0---|
G#-----0--------0--------0--------0---|
E------8h9------8h9------8h9------8h9-|
B------9--------9--------9--------9---|
F#---7-------0------------------0-----|
C#---------------------9--------------|
      E        A       C#m7       A

Verse

c#---0--------0-------0-------|
G#---0--------0-------0-------|
E----2--------1-------4-------|
B----2--------2-------4-------|
F#---0------- 2-------2-------|
C#----------------------------|
     Asus2    E      B

A           E           B
Take these roses off of me.......

Pre-Chorus

c#---0-------0--------0-------|
G#---0-------0--------0-------|
E----6-------2--------4-------|
B----6-------2--------4-------|
F#---4-------0--------2-------|
C#----------------------------|
    C#m7    Asus2     B


            C#m7         A      B
And I don't know if you see me here........


BRIDGE

c#---0-------0--------0-------0---|
G#---0-------0--------0-------0---|
E----2-------6--------4-------8---|
B----4-------7--------6-------9---|
F#---4-------7--------6-------9---|
C#-----------5----------------7---|
    F#m      A        Abm7    B

F#m                   A
I wanted you to be everything to me
F#m                             A
Now I've got to learn to carry on
F#m                         Abm7
I know I cannot hide this emptiness inside
A                                     B
But nothing is the same since you're gone
            
Hard to play? Try these video lessons and learn fast. | Correct




comments powered by Disqus
↑ Back to top | Tablatures and chords are parodies/interpretations of the original songs. You may use it for private study, scholarship, research or language learning purposes only