» » »

Versaemerge, Your Own Love Bass tabs (ver.1)

Artists:  A B C D E F G H I J K L M N O P Q R S T U V W X Y Z # 

Your Own Love Bass tabs (ver.1)

Versaemerge Tabs
 Rating:
4/5 (4 votes)
Your Own Love lessons Tabs too difficult? Try these video lessons and learn fast
                Your Own LoVE


Gtr I (D A D G)


Intro
|--------------------------------------------------------------------|
|--------------------------------------------------------------------|
|--------------------------------------------------------------------|
|-9-9-9-9-9-9-9-9---9-9-9-9-9-9-9---9-9-9-9-9-9-9---9-9-9-9-9-9-9----|



|--------------------------------------------------------------------|
|--------------------------------------------------------------------|
|--------------------------------------------------------------------|
|-9-9-9-9-9-9-9-9---9-9-9-9-9-9-9---5-5-5-5-5-5-5---7-7-7-7-7-7-7----|




Verse
||-------------------------------------------------------------------||
||o-----------------------------------------------------------------o||
||o-----------------------------------------------------------------o||
||--9-9-9-9-9-9-9-9-9-9-9-9-9-9-9-9-5-5-5-5-5-5-5-5-2-2-2-2-2-2-2-2--||


Chorus
||--------------------------------------------------------------------|
||o-------------------------------------------------------------------|
||o-------------------------------------------------------------------|
||--9-9-9-9-9-9-9-9---9-9-9-9-9-9-9---9-9-9-9-9-9-9---9-9-9-9-9-9-9---|

|------------------------------------------------------------------||
|-----------------------------------------------------------------o||
|-----------------------------------------------------------------o||
|-9-9-9-9-9-9-9-9---9-9-9-9-9-9-9---5-5-5-5-5-5-5---7-7-7-7-7-7-7--||


Verse
||---------------------------------------------------------------------||
||o-------------------------------------------------------------------o||
||o-------------------------------------------------------------------o||
||--9-9-9-9-9-9-9-9-9-9-9-9-9-9-9-9-5-5-5-5-5-5-5-5-2-2-2-2-2-2-2-2----||

Pre Chorus
|--------------------------------------------------------------|
|--------------------------------------------------------------|
|--------------------------------------------------------------|
|-9---9---9---9---9---9---9-9-9-5-5-5---5---5-2-2-2---2---2----|


|--------------------------------------------------------------------|
|--------------------------------------------------------------------|
|--------------------------------------------------------------------|
|-9-9-9-9-9-9-9-9-9-9-9-9-9-9-9-9-5-5-5-5-5-5-5-5-2-2-2-2-2-2-2-2----|


Chorus
||--------------------------------------------------------------------|
||o-------------------------------------------------------------------|
||o-------------------------------------------------------------------|
||--9-9-9-9-9-9-9-9---9-9-9-9-9-9-9---9-9-9-9-9-9-9---9-9-9-9-9-9-9---|


|------------------------------------------------------------------||
|-----------------------------------------------------------------o||
|-----------------------------------------------------------------o||
|-9-9-9-9-9-9-9-9---9-9-9-9-9-9-9---5-5-5-5-5-5-5---7-7-7-7-7-7-7--||


Bridge
|------------------------------------------------------------------------|
|------------------------------------------------------------------------|
|------------------------------------------------------------------------|
|-5-5-5-5-5-5-5-5-5-5-5-5-7-7-7-7-9-9-9-9-9-9-9-9-9-9-9-9-11-11-11-11----|


|----------------------------------------------------------------------------|
|----------------------------------------------------------------------------|
|----------------------------------------------------------------------------|
|-12-12-12-12-12-12-12-12-7-7-7-7-7-7-7-7-5-5-5-5-5-5-5-5-5-5-5-5-7-7-7-7----|



|------------------------------------------------------------------------|
|------------------------------------------------------------------------|
|------------------------------------------------------------------------|
|-5-5-5-5-5-5-5-5-5-5-5-5-7-7-7-7-9-9-9-9-9-9-9-9-9-9-9-9-11-11-11-11----|


|----------------------------------------------------------------------------|
|----------------------------------------------------------------------------|
|----------------------------------------------------------------------------|
|-12-12-12-12-12-12-12-12-7-7-7-7-7-7-7-7-2-2-2-2-2-2-2-2-4-4-4-4-4-4-4-4----|


|---------------------------------------|
|---------------------------------------|
|---------------------------------------|
|-9-------------------------------------|


Chorus
||--------------------------------------------------------------------|
||o-------------------------------------------------------------------|
||o-------------------------------------------------------------------|
||--9-9-9-9-9-9-9-9---9-9-9-9-9-9-9---9-9-9-9-9-9-9---9-9-9-9-9-9-9---|



|------------------------------------------------------------------||
|-----------------------------------------------------------------o||
|-----------------------------------------------------------------o||
|-9-9-9-9-9-9-9-9---9-9-9-9-9-9-9---5-5-5-5-5-5-5---7-7-7-7-7-7-7--||
            
Submit corrections

comments powered by Disqus
↑ Back to top | Versaemerge Bass for Your Own Love. Lyrics for acoustic guitar and electric guitar. Tablatures and chords are parodies/interpretations of the original songs. You may use it for private study, scholarship, research or language learning purposes only