>
 >
Your Own Love

Your Own Love Guitar Tabs

Versaemerge - Your Own Love chords, tabs, tablatures, lyrics

Guitar lessons | Add/correct | Request | Top 50 tabs Artists:  A B C D E F G H I J K L M N O P Q R S T U V W X Y Z 0-9

Your Own Love Guitar Tabs – Versaemerge

CD, Sheet music, Poster

Do you like Your Own Love? Share with your friends now
Bass TabsBass Tabs v2Tabs

Intro:
Guitar 1: Repeat multiple times
e|-10------7------7------7-------|
B|-10-(x7)-9-(x7)-8-(x7)-7-(x8)--|
G|-7-------7------7------7-------|
D|-------------------------------|
A|-------------------------------|
D|-------------------------------|

Guitar 2:

e|--------------------------------------------------------------------|
B|--------------------------------------------------------------------|
G|-44444444-4444444-4444444-444444444444444-4444444-------------------|
D|-44444444-4444444-4444444-444444444444444-4444444--5555555-6666666--|
A|-22222222-2222222-2222222-222222222222222-2222222--5555555-6666666--|
D|---------------------------------------------------5555555-6666666--|

Guitar 3:

e|---------------------------------------------|
B|---------------------------------------------|
G|-7777777777777777-99999999-1111111111111111--|
D|-xxxxxxxxxxxxxxxx-xxxxxxxx-x-x-x-x-x-x-x-x---|
A|-5555555555555555-77777777-9-9-9-9-9-9-9-9---| x2
D|---------------------------------------------|

Verse 1:
play with palm mute these chords
e|-----------------------------------|
B|-----------------------------------|
G|-----------------------------------|
D|-999999999999999-5555555-22222222--| x2
A|-999999999999999-5555555-22222222--|
D|-999999999999999-5555555-22222222--|
PM ............... ....... ........

Repeat the Intro as the Chorus.

Verse 2

e|-----------------------------------|
B|-----------------------------------|
G|-----------------------------------|
D|-9999999999999-55555555-222222222--| 
A|-9999999999999-55555555-222222222--|
D|-9999999999999-55555555-222222222--| x2
PM ............. ........ .........

NO I THINK YOU'RE BROKEN TO THE FACT

e|---------------------------------|
B|---------------------------------|
G|---------------------------------|
D|-9-9-9-9-9-9-9995-5-5-5-5-5-222--|
A|-9-9-9-9-9-9-9995-5-5-5-2-2-222--|
D|-9-9-9-9-9-9-9995-5-5-5-2-2-222--|
YEAH I THINK YOU'RE BROKEN TO THE FAAAACT
e|-----------------------------------|
B|-----------------------------------|
G|-----------------------------------|
D|-999999999999999-5555555-22222222--| 
A|-999999999999999-5555555-22222222--|
D|-999999999999999-5555555-22222222--|

Repeat the chorus

Bridge
Guitar 1

e|------------------------------------------------------------|
B|------------------------------------------------------------|
G|------------------------------------------------------------|
D|-5-------7777-9-------11111111-12------7------2-------4444--|
A|-x-(x12)-xxxx-x-(x12)-x-x-x-x-----(x8)---(x8)-x-(x12)-xxxx--|
D|-5-------7777-9-------11111111-12------7------2-------4444--|

e|------------------------------------------------------------|
B|------------------------------------------------------------|
G|------------------------------------------------------------|
D|-5--------9-------11111111-12------7------2------4------9~--|
A|-5-(x16)--9-(x12)-10101010-12-(x8)-7-(x8)-2-(x8)-4-(x8)-9~--|
D|-5--------9-------11111111-12------7------2------4------9~--|

Guitar 2: not sure if these are strings

e|------------------------------------------------------------------|
B|-12------14141414-15-----17171717-19-----14-----12------14141414--|
G|---(x12)----------x-(x12)x-x-x-x--x-(x8)-x-(x8)-x-(x12)-x-x-x-x---| 
D|-9-------11111111-12-----14141414-16-----11-----9-------11111111--|
A|------------------------------------------------------------------|
D|------------------------------------------------------------------|

e|--------------------------------------------------------------------|
B|-12------14141414-15-----17171717-19-----14-----12------14-----12~--|
G|---(x12)----------x-(x12)x-x-x-x--x-(x8)-x-(x8)-x-(x18)-x-(x8)-x----| 
D|-9-------11111111-12-----14141414-16-----11-----9-------11-----9~---|
A|--------------------------------------------------------------------|
D|--------------------------------------------------------------------|

Guitar 3:

e|-------------------------------------------------------------|
B|-------------------------------------------------------------|
G|-7-------9999-11------12121212--14------9------4-------6666--|
D|-x-(x12)-xxxx-x-(x12)-x-x-x-x---x--(x8)-x-(x8)-x-(x12)-xxxx--|
A|-5-------7777-9-------10101010--12------7------2-------4444--|
D|-------------------------------------------------------------|

e|---------------------------------------------------------------|
B|---------------------------------------------------------------|
G|-7-------9999-11------12121212--14------9------7------9999-7~--|
D|-x-(x12)-xxxx-x-(x12)-x-x-x-x---x--(x8)-x-(x8)-x-(x8)-xxxx-x---|
A|-5-------7777-9-------10101010--12------7------5------7777-5~--|
D|---------------------------------------------------------------|

Now repeat the chorus till the end and the final chord is:

e|-----|
B|-----|
G|-----|
D|-9\--|
A|-9\--|
D|-9\--|





Comments


Popular Versaemerge tabs & chords
Fire (Aim Your Arrows High) Bass Tabs
Clocks Chords
The Authors Chords
Fixed At Zero 2 Tabs
Moments Between Sleep Tabs
The Hider Tabs
The Hider Intro Tabs
Whisperer Tabs
Figure It Out Ukulele
Fixed At Zero Ukulele


Song lyrics



↑ Back to top | Tablatures and chords are parodies/interpretations of the original songs. You may use it for private study, scholarship, research or language learning purposes only
© 2014 AZChords.com Contact us | Privacy policy | DMCA | Add/correct tabs | Request tabs | Top 50 tabs