» » »

Versaemerge, In Pursuing Design Bass tabs (ver.2)

Artists:  A B C D E F G H I J K L M N O P Q R S T U V W X Y Z # 

In Pursuing Design Bass tabs (ver.2)

Versaemerge Tabs
 Rating:
4.4/5 (7 votes)
In Pursuing Design lessons Tabs too difficult? Try these video lessons and learn fast
                -------------------------------------------------------------------------------
			     In Pursuing Design - VersaEmerge
-------------------------------------------------------------------------------


Well, there were no other tabs so I figured I would give it a go, not 100% correct but 
was worth a shot.

Tuning: B,E,A,D,G

“Now that you know...”
G|------------------------------------------------------------------------------| X2
D|--22222222------------------------------22222222------------------------------|
A|----------33333333-00000000-22222222------------33333333-00000000-55555555----|
E|------------------------------------------------------------------------------|
B|------------------------------------------------------------------------------|


G|------------------------|x4
D|----2-------------------|
A|--23-------7-5-32-------|
E|-0----------------------|
B|-----55555--5-5---------|
(Bass Solo)

“You never said a word…”
G|----------------------------------------------------------------------------|x2
D|----------------------------------------------------------------------------|
A|--777777-77-10-9---00000000-33333333---777777-77-10-9---33333333-55555555---|
E|----------------------------------------------------------------------------|
B|----------------------------------------------------------------------------|

“Pursuing design both far and wide”
G|-------------| x1
D|-------------|
A|--0~~~~2-2---|
E|-------------|
B|-------------|

“Now that you know there’s time…”
G|--------------------------------------------------------X2|-----------------|
D|-------------------555444000------------------------------|-----------------|
A|-3333333333333333-----------------------------------------|-3~~~-0~~~~~-----|
E|-----------------------------00000000000000---------------|-----------------|
B|----------------------------------------------------------|-----------------|


G|------------------------|x2
D|----2-------------------|
A|--23-------7-5-32-------|
E|-0----------------------|
B|-----55555--5-5---------|
(Bass Solo)

“The way we see these things...”
G|----------------------------------------------------------------------------|x2
D|----------------------------------------------------------------------------|
A|--777777-77-10-9---00000000-33333333---777777-77-10-9---00000000-33333333---|
E|----------------------------------------------------------------------------|
B|----------------------------------------------------------------------------|

G|------------------------------------------------x2--|-----------------------|
D|---------444444555555-------------------------------|-----------------------|
A|-7777777--------------3333333333-0000000000---------|---0~~~~-2~~2----------|
E|----------------------------------------------------|-----------------------|
B|----------------------------------------------------|-----------------------|

“Now that you know…”
G|--------------------------------------------------------X2|--------------x2-|
D|-------------------555444000------------------------------|-----------------|
A|-3333333333333333-----------------------------------------|-3~~~-0~~~~~-----|
E|-----------------------------000000000000000--------------|-----------------|
B|----------------------------------------------------------|-----------------|

                                   “Sit and watch as I arise”
G|------------------------------|--------------------------------------------x2-|
D|------------------------------|---------------------<-10’s--------------------|
A|-777777-333333--777777-333333-|--77777777-5555-10101010-33333333-00000000-----|
E|------------------------------|-----------------------------------------------|
B|------------------------------|-----------------------------------------------|

“I lean on surmise…”
G|----------------------------------------------------------------------------|
D|----------------------------------------------------------------------------|
A|-77777777-333333333-0000000-22222222---777777777-33333333-00000000-55555555-|
E|----------------------------------------------------------------------------|
B|----------------------------------------------------------------------------|

---------------------------------------------------------------------------|
---------------------------------------------------------------------------|
-33333333-00000000---77777777-333333333-0000000-22222222-------------------|
---------------------------------------------------------------------------|
---------------------------------------------------------------------------|
(Ending)


| /  slide up
| \  slide down
| h  hammer-on
| p  pull-off
| ~  vibrato
| +  harmonic
| x  Mute note
            
Submit corrections

comments powered by Disqus
↑ Back to top | Versaemerge Bass for In Pursuing Design. Lyrics for acoustic guitar and electric guitar. Tablatures and chords are parodies/interpretations of the original songs. You may use it for private study, scholarship, research or language learning purposes only