>
 >
In Pursuing Design

In Pursuing Design Bass Tabs

Versaemerge - In Pursuing Design chords, tabs, tablatures, lyrics

Guitar lessons | Add/correct | Request | Top 50 tabs Artists:  A B C D E F G H I J K L M N O P Q R S T U V W X Y Z 0-9

In Pursuing Design Bass Tabs – Versaemerge

CD, Sheet music, Poster

Do you like In Pursuing Design? Share with your friends now
Bass TabsBass Tabs v2ChordsUkulele
-------------------------------------------------------------------------------
-------------------------------------------------------------------------------

Tuning: standard

i don't have a five string so i tabbed it out on a four
awesome band, awesome song!!

Intro: "Now that you know..."
G|-------------------------------------|
D|-------------------------------------|
A|5h77777-33333333-000000000055555555--|
E|-------------------------------------|x2

G|-------------------------------------|
D|-------------------------------------|
A|5h77777-3~-333333-000000000-2222222--|
E|-------------------------------------|

G|-------------------------------------|
D|-------------------------------------|
A|5h77777-33333333-000000000055555555--|
E|-------------------------------------|

pre-verse
G|-----------------------------|
D|------2-----------2----------|
A|3h5p3--3h5p3---------5---32--|
E|-------------0-0---0---0-----|x4

Verse "You never said a word with tangled hands dry."
G|-------------------------5----------------------|-----------------------------------------------|
D|---------------------5h7------------------------|---------------------54------------------------|
A|5h77777-7-7-5h77777------000000000000-333333-5--|5h77777-7-7-5h777777----333333333333-5555555555|
E|----------------------------------------------0-|-----------------------------------------------|

Pre-Chorus "Pursuing design go far and wide."
G|-------------|
D|-------------|
A|-0~------2~-2|
E|-------------|

Chorus "now that you know there's time..."
G|-------------------------------------------------------------------------------------------|
D|-----------------555444-------------------------------------555777444----------------------|
A|3333333333333333--------555-----------------5-5-33333333333-----------------------------5-5|
E|----------------------------0000000000000000-------------------------000000000000000000----|

right after chorus
G|-------|
D|-------|
A|3~---2-|
E|-------|

intro
G|----------------------------|
D|------2----------2----------|
A|3h5p3--3h5p3---------5---32-|
E|-------------0-0---0---0----|x2

Verse "the way we see these things."
G|-------------------------5----------------------|----------------------------------------------|
D|---------------------5h7------------------------|---------------------54-----------------------|
A|5h77777-7-7-5h77777------000000000000-333333-5--|5h77777-7-7-5h777777----00000000000-3333333-5-|
E|----------------------------------------------0-|---------------------------------------------0|

pre-chorus "With doubt your mind flees"
G|----------------------------------------------------|    |----------|
D|----------------------------------------------------|    |----------|
A|---------------------------333333-3-3-3-000000000000|    |0~----2~-2|
E|000000-0-0-0-000000-333333--------------------------|x2  |----------|

Chorus "now that you know there's time..."
G|-------------------------------------------------------------------------------------------|
D|-----------------555444-------------------------------------555777444----------------------|
A|3333333333333333--------555-----------------5-5-33333333333-----------------------------5-5|
E|----------------------------0000000000000000-------------------------000000000000000000----|
      
G|---------------------|------------------------------------|
D|---------------------|-2222-2-2----------2222-2-2---------|
A|3~---0~-0----3~---0~-|----------3333-3-3---------3333-3-3-|
E|---------------------|------------------------------------|

"Sit and watch as I arise."
G|-------------------------------------|
D|-22222222-0000-5555------------------|
A|-------------------33333333-00000000-|
E|-------------------------------------|x2

Outro
G|------------------------------------|
D|------------------------------------|
A|5h77777-3333333333-00000000005555555|
E|------------------------------------|x2

"Will fingers uncross? Will these knots untie?"
G|------------------------------------------------------------------|
D|------------------------------------------------------------------|
A|3-3-33-3~--3-0-0-0005555555-5h77777-3333333333-000000000555555555-|
E|------------------------------------------------------------------|





Comments


Popular Versaemerge tabs & chords
The Authors Bass Tabs
The Hider Bass Tabs
Figure It Out 2 Chords
Find Your Love Drake Cover Chords
Fixed At Zero 2 Chords
Mind Reader 1 Chords
No Consequences Chords
Consider The Sea Intro Tabs
The Authors 3 Tabs
Past Praying For Ukulele


Song lyrics



↑ Back to top | Tablatures and chords are parodies/interpretations of the original songs. You may use it for private study, scholarship, research or language learning purposes only
© 2014 AZChords.com Contact us | Privacy policy | DMCA | Add/correct tabs | Request tabs | Top 50 tabs