» » »

Versaemerge, Fixed At Zero Tabs (ver.4)

Artists:  A B C D E F G H I J K L M N O P Q R S T U V W X Y Z # 

Fixed At Zero Tabs (ver.4)

Versaemerge Tabs
 Rating:
3.8/5 (5 votes)
Fixed At Zero lessons Tabs too difficult? Try these video lessons and learn fast
                -------------------------------------------------------------------------------
                             FIXED AT ZERO - VersaEmerge
-------------------------------------------------------------------------------

Listen to the song to figure out the strumming, especially for the bridge.
This tab is the complete song through, with all lyrics.
The two highest strings are muted throughout this entire song.

This is the rhythm guitar part.

Tuning: C#

Intro:
e|---------|
B|---------|
G|-9---9---|
D|-9---10--|
A|-7---7---|
D|-x---x---|  x2

Verse 1:
e|--------------------------------------------------------------------------|
B|--------------------------------------------------------------------------|
G|--9-----------9---------------9----------------9--------------------------|
D|--9-----------10--------------9----------------10----------------5------3-|
A|--7-----------7---------------7----------------7-----------------5------3-|
D|--x-----------x---------------x----------------x-----------------5------3-|

   This doesn't make much sense. Think far out but I'm still locked in.

e|--------------------------------------------------------------------------|
B|--------------------------------------------------------------------------|
G|--9-----------9---------------9----------------9--------------------------|
D|--9-----------10--------------9----------------10----------------5------13|
A|--7-----------7---------------7----------------7-----------------5------9-|
D|--x-----------x---------------x----------------x-----------------5------9-|

 I'm still lost, walk in circles. The floor swallowed me up whole. There's nowhere to go.

Chorus:
e|--------------------------------------------------------------------------|
B|--------------------------------------------------------------------------|
G|--5-------------------7---------------------------------------------------|
D|--5-------------------7-----------------7---------------------------------|
A|--3-------------------5-----------------7---------------------------------|
D|--x-------------------0-----------------7---------------------------------|

There's a vulture on my shoulder and it's tellin' me to give in.
  Always hissin right in my ear like it's comin' from my own head. It's got me
 Mixed up, tryin not to give up, tell me there's a way to get out of here. Whoa!

e|-----------------------------|
B|-----------------------------|
G|--5-------------------7------|
D|--5-------------------7------|
A|--3-------------------5------|
D|--x-------------------0------|

I'm  fixed   at      zero!

Verse 2:
e|---------|
B|---------|
G|-9---9---|
D|-9---10--|
A|-7---7---|
D|-x---x---| x2

e|--------------------------------------------------------------------------|
B|--------------------------------------------------------------------------|
G|--9-----------9--------------------9-----------9--------------------------|
D|--9-----------10-------------------9-----------10----------------5------3-|
A|--7-----------7--------------------7-----------7-----------------5------3-|
D|--x-----------x--------------------x-----------x-----------------5------3-|

I've learned to talk with my fingers, the only voice that wakes my ears. 
                                                              (Oh make my bones feel somethin'.)

e|--------------------------------------------------------------------------|
B|--------------------------------------------------------------------------|
G|--9-----------9---------------9-----9-------------------------------------|
D|--9-----------10--------------9-----10----------------------5-----------13|
A|--7-----------7---------------7-----7-----------------------5-----------9-|
D|--x-----------x---------------x-----x-----------------------5-----------9-|

Ever wanna jump out' your skin? Anticipating til the sidewalk ends
                                                                (There's nowhere to go.)

Chorus:
e|--------------------------------------------------------------------------|
B|--------------------------------------------------------------------------|
G|--5-------------------7---------------------------------------------------|
D|--5-------------------7-----------------7---------------------------------|
A|--3-------------------5-----------------7---------------------------------|
D|--x-------------------0-----------------7---------------------------------|

There's a vulture on my shoulder and it's tellin' me to give in.
  Always hissin right in my ear like it's comin' from my own head. It's got me
 Mixed up, tryin not to give up, tell me there's a way to get out of here. Whoa!

e|-----------------------------|
B|-----------------------------|
G|--5-------------------7------|
D|--5-------------------7------|
A|--3-------------------5------|
D|--x-------------------0------|

    Fixed     at      zero! 

Bridge:
e|--------------------------------------------------------------------------|
B|--------------------------------------------------------------------------|
G|----9-----9------9------9------9------------------------------------------|
D|----9-----10-----7------9------10-----7------13---------------------------|
A|----7-----7------7------7------7------7------9----------------------------|
D|----x-----x------7------x------x------7------9----------------------------|

Chorus:
e|--------------------------------------------------------------------------|
B|--------------------------------------------------------------------------|
G|--5~------------------7~--------------------------------------------------|
D|--5~------------------7~----------------7~--------------------------------|
A|--3~------------------5~----------------7~--------------------------------|
D|--x-------------------0~----------------7~--------------------------------|

There's a vulture on my shoulder and it's tellin' me to give in.

e|--------------------------------------------------------------------------|
B|--------------------------------------------------------------------------|
G|--5-------------------7---------------------------------------------------| (slow,
D|--5-------------------7-----------------7---------------------------------| softer strumming)
A|--3-------------------5-----------------7---------------------------------|
D|--x-------------------0-----------------7---------------------------------|
 
 Always hissin right in my ear like it's comin' from my own head.


e|--------------------------------------------------------------------------|
B|--------------------------------------------------------------------------|
G|---------5---------------------7------------------------------------------|
D|---------5---------------------7------------------------7-----------------|
A|---------3---------------------5------------------------7-----------------|
D|---------x---------------------0------------------------7-----------------|

Its got me mixed up tryin not to give up tell me there's a way to get out of here. Whoa!

e|-----------------------------|
B|-----------------------------|
G|--5-------------------7------|
D|--5-------------------7------|
A|--3-------------------5------|
D|--x-------------------0------|

I'm fixed     at      zero!

Outro:
e|-----------------------------------------------------------------|
B|-----------------------------------------------------------------|
G|-9---9---9--------9-----9---9-----9--------9---------------------|
D|-9---10--9--------10----9---10----9--------10--------------------|
A|-7---7---7--------7-----7---7-----7--------7---------------------|
D|-x---x---x--------x-----x---x-----x--------x---------------------| 

       I'm fixed at zero!       I'm fixed at zero!


************************************

| /   slide up
| \   slide down
| h   hammer-on
| p   pull-off
| ~   vibrato/hold note
| +   harmonic
| x   Mute note
| b   Bend
| pb  Pre-bend
| br  Bend release
| pbr Pre-bend release
| brb Bend release bend

************************************
            
Submit corrections

comments powered by Disqus
↑ Back to top | Versaemerge Tabs for Fixed At Zero. Lyrics for acoustic guitar and electric guitar. Tablatures and chords are parodies/interpretations of the original songs. You may use it for private study, scholarship, research or language learning purposes only