» » »

Fixed At Zero Tabs (ver.1)

Artists:  A B C D E F G H I J K L M N O P Q R S T U V W X Y Z # 

Fixed At Zero Tabs (ver.1)

Versaemerge
Rating:
0/5 (0 votes)

Hard to play? Try these video lessons and learn fast.
                This this the acoustic version for the song Fixed At Zero by VersaEmerge.
You'll have to find out the strumming patterns by listening to the song itself.
This tab also has the lyrics for you to follow along with:]
Enjoy!

[INTRO]
e|-0--0--|
B|-8--8--|
G|-9-(7)-| <- the (7) can be muted
D|-9--10-|
A|-7--7--| x2
D|-X--x--|

[VERSE]
      This doesn't make much sense. Think far out but I'm still locked in
e|-0------------------0-----------0-----------------0------------------X-----X-|
B|-8------------------8-----------8-----------------8------------------X-----X-|
G|-9-----------------(7)----------9----------------(7)-----------------7-----5-|
D|-9------------------10----------9-----------------10-----------------5-----3-|
A|-7------------------7-----------7-----------------7------------------5-----3-|
D|-X------------------X-----------X-----------------X------------------5-----3-|

      I'm still lost, Walk in circles. The floor swallowed me up. Oh, there's nowhere to go
e|-0------------------0---------------0-------------0-------------X-----------X-------------X--|
B|-8------------------8---------------8-------------8-------------X-----------X-------------X--|
G|-9-----------------(7)--------------9------------(7)------------7-----------11------------11-|
D|-9------------------10--------------9-------------10------------5-----------9-------------13-|
A|-7------------------7---------------7-------------7-------------5-----------9-------------9--|
D|-X------------------X---------------X-------------X-------------5-----------9-------------9--|

[CHORUS]
There's a vulture on my shoulder and he's telling me to give in
e|--------X-------------X-----------------0---------------------|
B|--------X-------------X-----------------0---------------------|
G|--------5-------------7-----------------5---------------------|
D|--------5-------------7-----------------5---------------------|
A|--------X-------------X-----------------0---------------------|
D|--------X-------------X-----------------X---------------------|

Always hissing right in my ear like it's coming from my own head
e|-----X----------------X-----------------0---------------------|
B------X----------------X-----------------0---------------------|
G|-----5----------------7-----------------5---------------------|
D|-----5----------------7-----------------5---------------------|
A|-----X----------------X-----------------0---------------------|
D|-----X----------------X-----------------X---------------------|

It's got me mixed up, trying not to give up, tell me there's a way to get out of here. Whoa
e|----------0-----------------------0--------------------------0---------------------|
B|----------0-----------------------0--------------------------0---------------------|
G|----------5-----------------------7--------------------------5---------------------|
D|----------5-----------------------7--------------------------5---------------------|
A|----------3-----------------------5--------------------------0---------------------|
D|----------X-----------------------X--------------------------X---------------------|

    Fixed at zero
e|--0--------0---|
B|--0--------0---|
G|--5--------7---|
D|--5--------7---|
A|--3--------5---|
D|--X--------X---|

[REPEAT INTRO CHORDS ONCE]

[VERSE]
     I've learned to talk with my fingers. The only voice that awakes my ears
e|-0------------------0-------------------0----------------0--------------X---------------X-|
B|-8------------------8-------------------8----------------8--------------X---------------X-|
G|-9-----------------(7)------------------9---------------(7)-------------7---------------5-|
D|-9------------------10------------------9----------------10-------------5---------------3-|
A|-7------------------7-------------------7----------------7--------------5---------------3-|
D|-X------------------X-------------------X----------------X--------------5---------------3-|
                                                              I'll make my bones do something else
     Ever wanna jump out of your skin. Anticipating til the sidewalk ends. There's nowhere to go
e|-0------------------0---------------0-------0----------------------X-------------X----------X--|
B|-8------------------8---------------8-------8----------------------X-------------X----------X--|
G|-9-----------------(7)--------------9------(7)---------------------7-------------11---------11-|
D|-9------------------10--------------9-------10---------------------5-------------9----------13-|
A|-7------------------7---------------7-------7----------------------5-------------9----------9--|
D|-X------------------X---------------X-------X----------------------5-------------9----------9--|

[CHORUS]
There's a vulture on my shoulder and he's telling me to give in
e|--------X-------------X-----------------0---------------------|
B|--------X-------------X-----------------0---------------------|
G|--------5-------------7-----------------5---------------------|
D|--------5-------------7-----------------5---------------------|
A|--------X-------------X-----------------0---------------------|
D|--------X-------------X-----------------X---------------------|

Always hissing right in my ear like it's coming from my own head
e|-----X----------------X-----------------0---------------------|
B------X----------------X-----------------0---------------------|
G|-----5----------------7-----------------5---------------------|
D|-----5----------------7-----------------5---------------------|
A|-----X----------------X-----------------0---------------------|
D|-----X----------------X-----------------X---------------------|

It's got me mixed up, trying not to give up, tell me there's a way to get out of here. Whoa
e|----------0-----------------------0--------------------------0---------------------|
B|----------0-----------------------0--------------------------0---------------------|
G|----------5-----------------------7--------------------------5---------------------|
D|----------5-----------------------7--------------------------5---------------------|
A|----------3-----------------------5--------------------------0---------------------|
D|----------X-----------------------X--------------------------X---------------------|

    Fixed at zero
e|--0--------0---|
B|--0--------0---|
G|--5--------7---|
D|--5--------7---|
A|--3--------5---|
D|--X--------X---|

[BRIDGE]
e|-0---0---0------0---0---0---0-|
B|-8---8---0------8---8---0---0-|
G|-9---7---5------9---7---5---4-| 
D|-9---10--5------9---10--5---4-|
A|-7---7---0------7---7---0---2-| 
D|-X---X---X------X---X---X---X-|

[CHORUS]
There's a vulture on my shoulder and he's telling me to give in
e|--------X-------------0-----------------0--------------------0---0----|
B|--------X-------------0-----------------0----------------------0---0--|
G|--------5-------------7-----------------5-----------------------5---5-|
D|--------5-------------7-----------------5-----------------------------|
A|--------3-------------5-----------------0-----------------------------|
D|--------X-------------X-----------------X-----------------------------|

Always hissing right in my ear like it's coming from my own head
e|-----X-0--0--0--------0-0--0--0---------0---------------------|
B------X--0--0----------0--0--0-----------0---------------------|
G|-----5---5--5---------7---7--7----------5---------------------|
D|-----5----------------7-----------------5---------------------|
A|-----3----------------5-----------------0---------------------|
D|-----X----------------X-----------------X---------------------|

It's got me mixed up, trying not to give up, tell me there's a way to get out of here. NOO
e|----------0-----------------------0--------------------------0---------------------|
B|----------0-----------------------0--------------------------0---------------------|
G|----------5-----------------------7--------------------------5---------------------|
D|----------5-----------------------7--------------------------5---------------------|
A|----------3-----------------------5--------------------------0---------------------|
D|----------X-----------------------X--------------------------X---------------------|

    Fixed at zero
e|--0--------0---|
B|--0--------0---|
G|--5--------7---|
D|--5--------7---|
A|--3--------5---|
D|--X--------X---|

[OUTRO]         end on
e|-0--0--|     e|-0-|
B|-8--8--|     B|-8-|
G|-9-(7)-| X4  G|-9-|
D|-9--10-|     D|-9-|
A|-7--7--|     A|-7-|
D|-X--x--|     D|-X-|
            
Hard to play? Try these video lessons and learn fast. | Correct




comments powered by Disqus
↑ Back to top | Tablatures and chords are parodies/interpretations of the original songs. You may use it for private study, scholarship, research or language learning purposes only