» » »

Fixed At Zero Tabs (ver.3)

Artists:  A B C D E F G H I J K L M N O P Q R S T U V W X Y Z # 

Fixed At Zero Tabs (ver.3)

Versaemerge
Rating:
0/5 (0 votes)

Hard to play? Try these video lessons and learn fast.
                ==============
Fixed At Zero
==============

-*GUITAR 1
Intro: There are 3 different ways to play it
**1This part is very tricky so hopefully i got it right... oh btw you need some
fx here.
e|-7---------8------------------|
B|---8--(x5)---8--(x6 i think)--|
G|-----9---------9--------------|
D|------------------------------|
A|------------------------------|
D|------------------------------|

e|-7---------8--------8-----8-----8--------7-|
B|---8--(x5)---8--(x2---7-----7-----7---10---|
G|-----9---------9--------9-----9-----9------|
D|-------------------------------------------|
A|-------------------------------------------|
D|-------------------------------------------|
**2 apparently this is how blake plays it live
e|-19-15-0-(x5)-20-15-0-(x6)-19-15-0-(x5)-20-15-0-(x2)-20-14-0-20-14-0-20-14-0-15-17-|
B|-----------------------------------------------------------------------------------|
G|-----------------------------------------------------------------------------------|
D|-----------------------------------------------------------------------------------|
A|-----------------------------------------------------------------------------------|
D|-----------------------------------------------------------------------------------|
**3
e|-19-15----(x5)-20-15----(x6)-19-15----(x5)-20-15----(x2)-20-14----20-14----20-14----15-17--|
B|-------17------------17------------17------------17------------17-------17-------17--------|
G|-------------------------------------------------------------------------------------------|
D|-------------------------------------------------------------------------------------------|
A|-------------------------------------------------------------------------------------------|
D|-------------------------------------------------------------------------------------------|

Verse: "but i'm still locked in."
you could do some tremollo picking just for the lulz.

e|--15~-13~-|
B|----------|
G|----------|
D|----------|
A|----------|
D|----------|

I'M STILL LOOOOOOST... in this part you play the intro again

"up whooooooole"
again, use some tremollo picking if you want
e|--15~-19~-|
B|----------|
G|----------|
D|----------|
A|----------|
D|----------|

The chorus has no lead

in the Pre-verse there's no lead

the second verse is the same as the first one.

Bridge:
e|-----------------------------------------------------------------------|
B|-----------------------------------------------------------------------|
G|--9999--12121212--161616169999--12121212--17-16-14-------10-----12-----|
D|--xxxx--x-x-x-x---x-x-x-x-xxxx--x-x-x-x---x--x--x--(x16)-x-(x8)-x-(x8)-|
A|--7777--10101010--141414147777--10101010--15-14-12-------9------10-----|
D|-----------------------------------------------------------------------|

e|------------------------------------------------------------------|
B|------------------------------------------------------------------|
G|--9999--12121212--161616169999--12121212--17-16-14-------16-------|
D|--xxxx--x-x-x-x---x-x-x-x-xxxx--x-x-x-x---x--x--x--(x16)-x--(x32)-|
A|--7777--10101010--141414147777--10101010--15-14-12-------14-------|
D|------------------------------------------------------------------|


There's no lead till the outro that goes like the intro but with a variation, here it is
outro: even trickier than the intro

e|-7---------8------------------|
B|---8--(x5)---8--(x6 i think)--|
G|-----9---------9--------------|
D|------------------------------|
A|------------------------------|
D|------------------------------|

e|-7---------8--------8------8------8-------|
B|---8--(x5)---8--(x2---7------7-10---7-10--|
G|-----9---------9--------9-----------------|
D|------------------------------------------|
A|------------------------------------------|
D|------------------------------------------|

that's it

now the Rhythm is gonna be easier.
_______________________________________________________________________________

-*GUITAR 2
Intro: chords are these
just listen to the song to figure strumming
e|--7-7---|
B|--8-8---|
G|--9-9---|
D|--9-10--|
A|--7-7---|
D|--------|


Verses:
e|--7-7---|
B|--8-8---|
G|--9-9---|
D|--9-10--|
A|--7-7---|
D|--------|

"LOCKED IN"

e|-----|
B|-----|
G|-----|
D|-5-3-|
A|-5-3-|
D|-5-3-|


I'M STILL LOOOOOST WAAALKING CIRCLEEESS
e|--7-7---|
B|--8-8---|
G|--9-9---|
D|--9-10--|
A|--7-7---|
D|--------|

e|-----|
B|-----|
G|---4-|
D|-5-4-|
A|-5-2-|
D|-5---|

Chorus:

e|---------|
B|---------|
G|--5-7----|
D|--5-7-7--|x4
A|--3-5-7--|
D|------7--|

the forth time don't play the 7's

Pre-Verse: just strum this chord

e|-----|
B|--8--|
G|--9--|
D|--x--|
A|--7--|
D|-----|

Play the second verse exactly the same way you played the first and then the chorus again
for the bridge part you can either play the lead part OR you could play some chords,
try to listen to the moment they should change

First time the last A powerchord lasts longer and you don't play the last B power chord, 
the second time you play it exactly like ths:
e|----------------------------------------------------------|
B|----------------------------------------------------------|
G|--9999--9999--9-9-9-9--9999--9999--9--9----------4--------|
D|--9999--9999--10101010-9999--9999--10-10-7-------4-(x32)--|
A|--7777--7777--7-7-7-7--7777--7777--7--7--7-(x16)-2--------|
D|-----------------------------------------7----------------|

Now play the chorus chords once in a clean channel
and after that in the "always hissing right in my ear..." strum this chord

e|-----|
B|--8--|
G|--9--|
D|--x--|
A|--7--|
D|-----|

now stop and the full band kicks in, here you play well, the rest of the chorus but when
sings "i'm fixed at zero" strum this chord

e|-----|
B|--7--|
G|--7--|
D|--x--|
A|--5--|
D|-----|

stops and then the intro kicks in again and you got it.
            
Hard to play? Try these video lessons and learn fast. | Correct




comments powered by Disqus
↑ Back to top | Tablatures and chords are parodies/interpretations of the original songs. You may use it for private study, scholarship, research or language learning purposes only