» » »

Vendetta Red, Silhouette Serenade Tabs (ver.3)

Artists:  A B C D E F G H I J K L M N O P Q R S T U V W X Y Z # 

Silhouette Serenade Tabs (ver.3)

Vendetta Red Tabs
 Rating:
4/5 (4 votes)
Silhouette Serenade lessons Tabs too difficult? Try these video lessons and learn fast
1
                okay so i took a look at the other tabs and they were good but there were parts here and 
that were wrong so im here to fix that!

intro: (transcribed from violin)
[lead guitar]
E|----------------------------------------|
A|----------------------------------------|
D|----------------------------------------|
G|----------------------------------------|
B|-----5--5----------5--0--0----------5---|
E|---4--4---5-4-2-4---2--2---5-4-2-4------|

play that around 4 times
twice alone and twice while rythem guitar plays this:
"The last thing I wanna do right now..."
E|-------------------|
A|---2---4---2-------|
D|---2---6---4---2---|
G|---1---6---4---2---|
B|-------------------|
E|-------------------|

play that for the verses too.

btw...figure out when to change the chords by yourself. just listen to the song.

for the pre chorus you play this:

"You'd clear your conscience..."
E|---------------7---|
A|---4---2---7---9---|
D|---6---4---9---9---|
G|---6---4---9---8---|
B|-------------------|
E|-------------------|

then for the chorus you play the same chords as the verses:
"Silhouette or a Serenade..."
E|-------------------|
A|---2---4---2-------|
D|---2---6---4---2---|
G|---1---6---4---2---|
B|-------------------|
E|-------------------|

then do the same thing over again for verse 2, the pre chorus, and chorus.

now where it changes.

the bridge is where vendetta red guitarist, leif changes octaves in song and it goes...

"And all pretty poems have to end..."

E|-------5-------7---|
A|---4---7---7---9---|
D|---6---7---9---9---|
G|---6---6---9---8---|
B|-------------------|
E|-------------------| x2

"Surrender! Surrender!..."
E|-------------------|
A|---2---4---2-------|
D|---2---6---4---2---|
G|---1---6---4---2---|
B|-------------------|
E|-------------------|x2

then you go into the final chorus:

"Silhouette or a Serenade..."
E|---2---------------|
A|---4---6---4---2---|
D|---4---8---6---4---|
G|---3---8---6---4---|
B|-------------------|
E|-------------------|

play that until the end and end on this chord:

E|---2---|
A|---4---|
D|---4---|
G|---3---|
B|-------|
E|-------|
            
Submit corrections

comments powered by Disqus
↑ Back to top | Vendetta Red Tabs for Silhouette Serenade. Lyrics for acoustic guitar and electric guitar. 1 Tablatures and chords are parodies/interpretations of the original songs. You may use it for private study, scholarship, research or language learning purposes only