» » »

Vendetta Red, Silhouette Serenade Tabs (ver.2)

Artists:  A B C D E F G H I J K L M N O P Q R S T U V W X Y Z # 

Silhouette Serenade Tabs (ver.2)

Vendetta Red Tabs
 Rating:
4/5 (4 votes)
Silhouette Serenade lessons Tabs too difficult? Try these video lessons and learn fast
1
                ----------------------------------------------------------------------------                  
Silhouette Serenade - Vendetta Red
----------------------------------------------------------------------------

Tuning:  Drop-D (From Low to High:  D-a-d-g-b-e)


 Intro (Arranged for guitar) 
 
 Guitar 1
e|-------------------------------------------------------------------------|
B|---9---9----10--9--7--9--------7---7----10--9--7--9---------(2x)---------|
G|-----9---9--------------9--------4---4--------------9--------------------|
D|-------------------------------------------------------------------------|
A|-------------------------------------------------------------------------|
D|-------------------------------------------------------------------------|
 
 Guitar 2
e|-------------------------------------------------------------------------|
B|-------------------------------------------------------------------------|
G|-------------------------------------------------------------------------|
D|-------------------------------------------------------------------------|
A|-------------------------------------------------------------------------|
D|-------------------------------------------------------------------------|


 Intro (continued)

 Guitar 1                           
e|--------------------------------------------------------------------0----|
B|---9---9----10--9--7--9--------7---7----10--9--7--9----------(2x)---0----|
G|-----9---9--------------9--------4---4--------------9---------------1----|
D|--------------------------------------------------------------------2----|
A|--------------------------------------------------------------------2----|
D|--------------------------------------------------------------------2----|

 Guitar 2
e|-------------------------------------------------------------------------|
B|-------------------------------------------------------------------------|
G|----------------6-6-6-6--------4-4-4-4-----------------------(2x)--------|
D|---2-2-2-2------6-6-6-6--------4-4-4-4------7-7-7-7----------------------|
A|---2-2-2-2------4-4-4-4--------2-2-2-2------7-7-7-7----------------------|
D|---2-2-2-2----------------------------------7-7-7-7----------------------|


 Verse 

 Guitar 1 (Strumming)
e|-------------------------------------------------------------------------|
B|---5------4------5------4--------------(repeat as many times as needed)--|
G|---4------4------4------4------4-----------------------------------------|
D|-------------------------------------------------------------------------|
A|-------------------------------------------------------------------------|
D|-------------------------------------------------------------------------|

 Guitar 2
e|---4------------------------5--------------------7------5------7---------|
B|-----5------------------------5------------------7------5------7---------|
G|-------6------(4x)--------------6------(4x)------8------6------8---------|
D|---------6------------------------7--------------9------7------9---------|
A|-------------------------------------------------------------------------|
D|-------------------------------------------------------------------------|


 Chorus

 Both Guitars (2x)
e|-------------------------------------------------------------------------|
B|-------------------------------------------------------------------------|
G|----------------6-6-6-6--------4-4-4-4-----------------------------------|
D|---2-2-2-2------6-6-6-6--------4-4-4-4------7-7-7-7----------------------|
A|---2-2-2-2------4-4-4-4--------2-2-2-2------7-7-7-7----------------------|
D|---2-2-2-2----------------------------------7-7-7-7----------------------|

 Guitar 1
e|-------------------------------------------------|
B|-------------------------------------------------|
G|-------------6666------4444----------------------|
D|---2222------6666------4444------7777------------|
A|---2222------4444------2222------7777------------|
D|---2222--------------------------7777------------|

 Guitar 2
e|-------------------------------------------------|
B|-------------------------------------------------|
G|--------6666------6666------8888------6666-------|
D|--------xxxx------xxxx------xxxx------xxxx-------|
A|--------4444------4444------6666------4444-------|
D|-------------------------------------------------|

 Both Guitars 
 Guitar 1 ends on (*)                                              *
e|-----------------------------------------------------------------0-------|
B|-----------------------------------------------------------------0-------|
G|----------------6-6-6-6--------4~--------------------------------1-------|
D|---2-2-2-2------6-6-6-6--------4~-----------7~-------------------2-------|
A|---2-2-2-2------4-4-4-4--------2~-----------7~-------------------2-------|
D|---2-2-2-2----------------------------------7~-------------------2-------|


Play Verse
Play Chorus


 Solo

 Guitar 1
e|-------------------------------------------------------------------------|
B|-----5-7-5-----5\------5-7-5-------------------------5-7-5-----5\--------|
G|-/6-----------------/6-----------5-6-8--(3x)------6------------------4---|
D|-------------7----------------6-----------------------------7--------4---|
A|---------------------------------------------------------------------2---|
D|-------------------------------------------------------------------------|


Play Intro (continued)


 Outro
 Both Guitars
e|-------------------------------------------------------------------------|
B|-------------------------------------------------------------------------|
G|----------------8-8-8-8--------6-6-6-6------4-4-4-4---------(2x)---------|
D|---4-4-4-4------8-8-8-8--------6-6-6-6------4-4-4-4----------------------|
A|---4-4-4-4------6-6-6-6--------4-4-4-4------2-2-2-2----------------------|
D|---4-4-4-4---------------------------------------------------------------|

e|-------------------------------------------------------------------------|
B|-------------------------------------------------------------------------|
G|----------------8-8-8-8--------6~-----------4~---------------------------|
D|---4-4-4-4------8-8-8-8--------6~-----------4~-----------4~--------------|
A|---4-4-4-4------6-6-6-6--------4~-----------2~-----------4~--------------|
D|---4-4-4-4-----------------------------------------------4~--------------|






| /  slide up
| \  slide down
| h  hammer-on
| p  pull-off
| ~  vibrato
| +  harmonic
| x  Mute note
============================================================================
            
Submit corrections

comments powered by Disqus
↑ Back to top | Vendetta Red Tabs for Silhouette Serenade. Lyrics for acoustic guitar and electric guitar. 1 Tablatures and chords are parodies/interpretations of the original songs. You may use it for private study, scholarship, research or language learning purposes only