» » »

Velvet Revolver, You Got No Right (Solo Ver ) Tabs (ver.1)

Artists:  A B C D E F G H I J K L M N O P Q R S T U V W X Y Z # 

You Got No Right (Solo Ver ) Tabs (ver.1)

Velvet Revolver Tabs
 Rating:
4/5 (4 votes)
You Got No Right (Solo Ver ) lessons Tabs too difficult? Try these video lessons and learn fast
                "(2)
e[--/13-13-13-12-12-12-10-10-10--------/15-15-15-13-13-13-12-12-12-10-10-10-|
 b[-----------------------------10-10-10-------------------------------------|
 g[--------------------------------------------------------------------------|
 d[--------------------------------------------------------------------------|
 a[--------------------------------------------------------------------------|
 E[--------------------------------------------------------------------------|
                                        ^^^^
e[------------14-------------------------------------------------------------|
b[---------15-----17b19-17b19-15h17----17-- ---------------------------------|
g[---12/14--------------------------19-----15b17---15---14-14b15-14b15-14b15-|
d[---------------------------------------------------------------------------|
a[---------------------------------------------------------------------------|
E[---------------------------------------------------------------------------|
                      ^^^            ^^^
e[----------------------------------------------10-----10-13b15-13-10h13p10--|
b[------------------10--------------10—13p10h13-----13-----------------------|
g[---12<<12p11-11h12-----12p11-11h12-----------------------------------------|
d[---------------------------------------------------------------------------|
a[---------------------------------------------------------------------------|
E[---------------------------------------------------------------------------|

e[--------10-/18-----17----15--15----/20----18-----17-----17-----20b22------|
b[---13-13-------------------------------------------19h20------------------|
g[----------------------------------------------------------191919---191919-|
d[--------------------------------------------------------------------------|
a[--------------------------------------------------------------------------|
E[--------------------------------------------------------------------------|

e[---20b22—17-----20b22-20b22--17h20p17-17-17-------------------------------|
b[-------------------------------------------20---20b22-20b22-20b22-20b22---|
g[-----------------19-------------------------------------------------------|
d[--------------------------------------------------------------------------|
a[--------------------------------------------------------------------------|
E[--------------------------------------------------------------------------|

e[--------------------------------------------------------------------------|
b[---20b22-20b22-20b22-20b22-22-20-19h20p19---------------------------------|
g[--------------------------------------------------------------------------|
d[--------------------------------------------------------------------------|
a[--------------------------------------------------------------------------|
E[--------------------------------------------------------------------------|


Well this is really an easy solo.  That other guy "Baaa"  made a lot of mistakes so
i corrected him because he said he wanted me to try anyways.  His tabs were also
upsidedown.  Smart!
-Blaise
"            
Submit corrections

comments powered by Disqus
↑ Back to top | Velvet Revolver Tabs for You Got No Right (Solo Ver ). Lyrics for acoustic guitar and electric guitar. Tablatures and chords are parodies/interpretations of the original songs. You may use it for private study, scholarship, research or language learning purposes only