» » »

Velvet Revolver, For A Brother Tabs (ver.1)

Artists:  A B C D E F G H I J K L M N O P Q R S T U V W X Y Z # 

For A Brother Tabs (ver.1)

Velvet Revolver Tabs
 Rating:
3.7/5 (6 votes)
For A Brother lessons Tabs too difficult? Try these video lessons and learn fast
1
                Velvet Revolver
Libertad

Slash & Dave Kushner
Standard Tuning


Intro
  Slash And Dave
 1+2+ 1+2+3+4+ 1+2+3+4+ 1+2+3+4+ 1+2+3+4+
|----|--------|--------|--------|--------|
|----|--------|--------|--------|--------|
|----|--------|--------|--------|--------|
|----|--------|--------|-------4|6664-2--|
|---2|4442xxx2|4442xxx2|4442xxx2|4442-0-2|
|---0|2220xxx0|2220xxx0|2220xxx-|-------0|

 1+2+3+4+ 1+2+3+4+ 1+2+3+4+ 1+2+3+4+
|--------|--------|--------|--------||
|--------|--------|--------|--------||
|--------|--------|--------|--------||
|--------|--------|-------4|6664-2--||
|4442xxx2|4442xxx2|4442xxx2|4442-0-2||
|2220xxx0|2220xxx0|2220xxx-|-------0||
|                                   ||
| Slash Lead                        ||
|--------|--------|--------|--------||
|--------|--------|--------|--------||
|99979997|99979997|99979994|6664-2--||
|--------|--------|--------|-------2||
|--------|--------|--------|--------||
|--------|--------|--------|--------||

Verse   
 1+2+3+4+ 1+2+3+4+ 1+2+3+4+ 1+2+3+4+
|--------|--------|--------|--------|
|--------|--------|--------|--------|
|--------|--------|--------|--------|
|--------|--------|-------4|6664-2--|
|4442xxx2|4442xxx2|4442xxx2|4442-0-2|
|2220xxx0|2220xxx0|2220xxx-|-------0|
|                                   |
|--------|--------|--------|--------|
|--------|--------|--------|--------|
|99979997|99979997|99979994|6664-2--|
|--------|--------|--------|-------2|
|--------|--------|--------|--------|
|--------|--------|--------|--------|

 Dave Rhythm            
|--------|--------|--------|         
|--------|--------|--------|          
|--------|--------|-------4|         
|--------|--------|-------4|         
|4442xxx2|4442xxx2|4442xxx2|          
|2220xxx0|2220xxx0|2220xxx-|
| Slash Rhythm             |
|--------|--------|--------|         
|--------|--------|--------|          
|--------|--------|-------4|         
|--------|--------|-------4|         
|4442xxx2|4442xxx2|4442xxx2|          
|2220xxx0|2220xxx0|2220xxx-|
| Slash Lead               |
|--------|--------|--------|
|--------|--------|--------|
|99979997|99979997|9997999-|
|--------|--------|--------|
|--------|--------|--------|

 1+2+3+4+ 1+2+3+4+
|--------|--------||
|--------|--------||
|4-------|--------||
|4--hold-|--------||
|2-------|--------||
|--------|--------||
|     W/Imrpov.   ||
|--------|--------||
|------4-|-2------||
|4-----4-|-242----||
|4-------|--42424s|| 
|2-------|----422s||
|--------|--------||

Chorus

 1 +2 + 3 + 4+ 1+ 2 + 3+ 4 +
|-------------|--------------|
|-------------|--------------|
|10-1010109-14|-141412-121212|
|x--x-x-x-x-x-|-x-x-x--x-x-x-|
|8--8-8-8-7-12|-121210-101010|
|-------------|--------------|
|                            |
|-------------|--------------|
|-------------|--------------|
|-------------|--------------|
|3--3-3-3-2-7-|-7-7-5--5-5-5-|
|3--3-3-3-2-7-|-7-7-5--5-5-5-|
|1--1-1-1-0-5-|-5-5-3--3-3-3-|

 1 +2 + 3 + 4+ 1+ 2 + 3+ 4 +
|-------------|--------------|
|-------------|--------------|
|10-1010109-17|-171717-191919|
|x--x-x-x-x-x-|-x-x-x--x-x-x-|
|8--8-8-8-7-15|-151515-171717|
|-------------|--------------|
|                            |
|-------------|--------------|
|-------------|--------------|
|-----------5-|-5-5-5--7-7-7-|
|3--3-3-3-2-5-|-5-5-5--7-7-7-|
|3--3-3-3-2-3-|-3-3-3--5-5-5-|
|1--1-1-1-0---|--------------|

 1 +2 + 3 + 4+ 1+ 2 + 3+ 4 +  1+ 2 + 3 + 4 +  1+ 2 + 3 +4+
|-------------|--------------|---------------|------------||
|-------------|------------14|-14141414141416|-16161616~~~||
|10-1010109-14|-141412-121214|-14141414141416|-16161616~~~||
|x--x-x-x-x-x-|-x-x-x--x-x---|---------------|------------||
|8--8-8-8-7-12|-121210-1010--|---------------|------------||
|-------------|--------------|---------------|------------||
|                                                         ||
|-------------|--------------|---------------|------------||
|-------------|--------------|---------------|------------||
|-------------|--------------|---------------|------------||
|3--3-3-3-2-7-|-7-7-5--5-5-7-|-7-7-7-7-7-7-9-|-9-9-9-9----||
|3--3-3-3-2-7-|-7-7-5--5-5-7-|-7-7-7-7-7-7-9-|-9-9-9-9----||
|1--1-1-1-0-5-|-5-5-3--3-3-5-|-5-5-5-5-5-5-7-|-7-7-7-7----||

Second Verse and Chorus are the same
Haven't tabbed out the interlude/solo yet
The rest is east to work out from this I would have thought

Key
X - Muted note
S - Slide out
~ - Vibrato
            
Submit corrections

comments powered by Disqus
↑ Back to top | Velvet Revolver Tabs for For A Brother. Lyrics for acoustic guitar and electric guitar. 1 Tablatures and chords are parodies/interpretations of the original songs. You may use it for private study, scholarship, research or language learning purposes only