>
 >
We Bow In It's Aura

We Bow In It's Aura Guitar Tabs

Veil Of Maya - We Bow In It's Aura chords, tabs, tablatures, lyrics

Guitar lessons | Add/correct | Request | Top 50 tabs Artists:  A B C D E F G H I J K L M N O P Q R S T U V W X Y Z 0-9

We Bow In It's Aura Guitar Tabs – Veil Of Maya

CD, Sheet music, Poster

Do you like We Bow In It's Aura? Share with your friends now
Tabs
Veil of Maya : We Bow In Its Aura

Modified by: Foster (bornofmaya)
Modified again by: Anthony (AlucardXIX)

Notes: This is my version of this tab of the other tab up. It's not accurate, but it's acceptable.

More notes(From Alucard): You can check my video, this is exactly how I play it. I'm 
changing the things that
I found wrong in the tabs on here. So I figure this will give you guys a more accurate 
of playing it.
my liking originally.

Enjoy!


Riff 1 (0:00)
Repeat: x2

|-------------------------|
|-------------------------|
|-------------------------|
|----------8p7------------|
|-0------------8-0--0-000-|
|-0--0h3h7-------0--0-000-|
  *              *  * ***

|----------------------------------------------------|
|----------------------------------------------------|
|----------------------------------------------------|
|-------------------------20p12p8-19p11p7------------|
|---------17p12p8------------------------------------|
|-0h8h12---------17p12p8-----------------------------|
          T       T       T       T

|--------------------------------|
|--------------------------------|
|--------------------------------|
|----8----8---3---3--------------|
|---12---12---7---7----------5---|
|-0----0----0---0----0-1-4-7---7-|
  *    *    *   *

|--------------------------------------------------|
|--------------------------------------------------|
|--------------------------------------------------|
|-----8---8---7---7--4h5p4-----------5-7---5---4---|
|--------------------------6-5-3-5-6-----6---5---5-|
|-4/5---5---4---4----------------------------------|
    *   *   *   *

Riff 2 (0:18)
Pattern: A x1, B x2

A        B
|-------|----------------------------------------|
|-------|----------------------------------------|
|-7h8p7-|-5h7p5-----------5h7p5-----------5h7p5--|
|-------|-------5-------5-------5-------5--------|
|-------|---------6-3-6-----------6-3-6----------|
|-------|----------------------------------------|


(0:23)

|---------------------------------------|
|---------------------------------------|
|-7h8p7-----------7h8p7-----------7h8p7-|
|-------7-------7-------7-------7-------|
|---------9-5-9-----------9-5-9---------|
|---------------------------------------|

|----------------------------------------------------------|
|----------------------------------------------------------|
|-11h12p11----------------11h12p11----------------11h12p11-|
|----------12----------12----------12----------12----------|
|-------------13-12-13----------------13-12-13-------------|
|----------------------------------------------------------|


Riff 3 (0:27)
Repeat: x2
--11-8----10-----8-------------------8------------|
----------------------12-8----12------------------|
--------------------------------------------------|
-------10----10----10------10----10---------------|
--------------------------------------------------|
--------------------------------------------------|

(0:31)

|---------------------------------------------------------|
|---------------------------------------------------------|
|----------7---8---12/11---11---12----15/14---14---12--11-|
|---------------------------------------------------------|
|-0-5-4----5---6---10/-9----9---10----13/12---12---10---9-|
|-0-5-4--0---0---0--------0---0----0--------0----0----0---|
  * *    *   *   *        *   *    *        *    *    *

|-----------------|
|-----------------|
|-6/7-7-7-7/8-8-8-|
|-----------------|
|-4/5-5-5-5/6-6-6-|
|-----------------|

Riff 3 Variation (0:36)
--11-8----10-----8-------------------8------------|
----------------------12-8----12------------------|
--------------------------------------------------|
-------10----10----10------10----10---------------|
--------------------------------------------------|
--------------------------------------------------|


---------11h15p11------11h15-20p15p11-------|
-------13--------13--13--------------13-----|
-----12------------12------------------12---|
---13------------------------------------13-|
-15-----------------------------------------|
--------------------------------------------|
                             T

(0:40)

|---------------------------------------------------------|
|---------------------------------------------------------|
|----------7---8---12/11---11---12----15/14---14---12--11-|
|---------------------------------------------------------|
|-0-5-4----5---6---10/-9----9---10----13/12---12---10---9-|
|-0-5-4--0---0---0--------0---0----0--------0----0----0---|
  * *    *   *   *        *   *    *        *    *    *

|-----------------|
|-----------------|
|-6/7-7-7-7/8-8-8-|
|-----------------|
|-4/5-5-5-5/6-6-6-|
|-----------------|

Riff 4 (0:44)
Repeat: x2

|----------------------------------------------|
|----------------------------------------------|
|----------------------------------------------|
|---------4h7p4--------------5h8p5------8h12p8-|
|-111-111-------111-111-111---------111--------|
|-111-111-------111-111-111---------111--------|
  *** ***       *** *** ***         ***

|------------------------------------8h10p8-|
|-------------------------------------------|
|-------------------------------------------|
|-----------------7h9p7---------------------|
|-111-111-111-111--------111-111-111--------|
|-111-111-111-111--------111-111-111--------|
  *** *** *** ***        *** *** ***

|---------------------------------------------14h15h17-----|
|------------7h10p7-----8h11p8-----------------------------|
|----------------------------------------------------------|
|----------------------------------------------------------|
|-111-111-111-------111--------111-111-111-111---------111-|
|-111-111-111-------111--------111-111-111-111---------111-|
  *** *** ***       ***        *** *** *** ***         ***

(1:01)
Repeat x2

|---------------------------------------------14h15h17-|
|------------------------------------------------------|
|------------------------------------------------------|
|-13/--------------------------------------------------|
|------111-111--111-111-111--11---111-111-111----------|
|------111-111--111-111-111--11---111-111-111----------|
       *** ***  *** *** ***  **   *** *** ***

(1:10)

|----15h17h18----22-22-22-17-17-17--------|
|-----------------------------------------|
|-----------------------------------14/17-|
|-----------------------------------------|
|000--------------------------------12-15-|
|000--------------------------------------|
 ***

Riff 5 (1:12)

|------------------------------------------|
|------------------------------------------|
|------------------------------------------|
|------------------------------------------|
|-11-11---11-11-11---11---11-11-11-11---11-|
|-11-11---11-11-11---11---11-11-11-11---11-|
  ** **   ** ** **   **   ** ** ** **   **

(1:16)
Repeat: x2

|------------------------------------------|
|------------------------------------------|
|------------------------------------------|
|------------------------------------------|
|-55-55---55-55-55---55---55-55-55-55---55-|
|-55-55---55-55-55---55---55-55-55-55---55-|
  ** **   ** ** **   **   ** ** ** **   **

|------------------------------------------|
|------------------------------------------|
|------------------------------------------|
|------------------------------------------|
|-11-11---11-11-11---11---11-11-11-11---11-|
|-11-11---11-11-11---11---11-11-11-11---11-|
  ** **   ** ** **   **   ** ** ** **   **

Riff 6 (1:16)
Repeat: x2
Note: This is closer to how its played, same notes, different position.

                              Tap slides
----------------------------10-15\17/15--10--------------------|
-8-10-8-------8-10-11-10-11-----------------11-10-11-10-8-10---|
--------7-5-7--------------------------------------------------|

                              Tap slides
-----------------------11---11-18\19/18--11---------------------|
-11-12-11--------11-12---12-----------------12-11-12-11---------|
---------11-8-11----------------------------------------11-8-11-|


(1:36)

|---------------------|
|---------------------|
|-12h14p12------12h14-|
|---------12--12------|
|-----------13--------|
|---------------------|

Riff 7 (1:37)
Repeat: x6
This is almost exactly how Marc plays this part.

|--------------------------------------------------|
|--------------------------------------------------|
|--------------------------------------------------|
|-7/8-----4-----7/8-----4---------7/8-----4--------|
|-5-5-----1-----5-5-----1---------5-5-----1--------|
|-5-5--0--1--0--5-5--0--1--5-5-5--5-5--0--1--5-5-5-|
       *     *       *     * * *       *     * * *

Riff 8 (1:59)

|--------------------------------------------------|
|--------------------------------------------------|
|--------------------------------------------------|
|-7----8-1210----55------7----8-1210----55---------|
|-5-55-5-8-8-3-1-11-1--3-5-55-5-8-8-3-1-11-1-0-0-0-|
|-5-55-5-8-8-3-1-11-1--3-5-55-5-8-8-3-1-11-1-0-0-0-|
    **           **        **           **     *

|------------------------------|
|------------------------------|
|------------------------------|
|-7----8-1210-----55---------5-|
|-5-55-5-8-8--1-1-11-----3h5---|
|-5-55-5-8-8--1-1-11--3h5------|
    **            **

(2:10)
---------------------------------------------|
---------------------------------------------|
---------------------------------------------|
-7-8--12--10---8----3\555---3\4-0---3\555--5-|
-5-5---------------------------------------5-|
-5-5----8----8----1-------1-------1--------5-|


|----|---------------------------------|
|----|---------------------------------|
|----|---------------------------------|
|-1~-|---------------------------------|
|-1~-|-6-666-6666666-666-66666-6666666-|
|-1~-|---------------------------------|
       * *** ******* *** ***** *******

This is how I play it, it might be all on the first fret though.

|---------------------|
|---------------------|
|---------------------|
|---------------------|
|-000-00000-00000000--|
|-111-11111-11111111--|
  *** ***** ********

(2:22)
Pattern: (A x2.5, B x1) x2
Notes: I prefer to play the rhythm like this.

A                              B
|------------------------------|-------|
|------------------------------|-------|
|------------------------------|-------|
|------------------------------|-------|
|-----5-----5-------5--------5-|-------|
|-0-1---0-1----1001----0-101---|-0-0-0-|
  * *   * *    ****    * ***     * * *

(2:36)
This is a ridiculous polyrhythmic breakdown. It's this pattern, only it changes every 
Just learn this
and play along with it.

|---------------------|
|---------------------|
|---------------------|
|---------------------|
|--00000-00000000-000-|
|--11111-11111111-111-|
   ***** ******** ***


(2:44)
Pattern: A x2.5, B x1

A                              B
|------------------------------|-------|
|------------------------------|-------|
|------------------------------|-------|
|------------------------------|-------|
|-----5-----5-------5--------5-|-------|
|-0-1---0-1----1001----0-101---|-0-0-0-|
  * *   * *    ****    * ***     * * *

(2:51)
Pattern: A x2.5, B x1

A                              B
|------------------------------|-------|
|------------------------------|-------|
|------------------------------|-------|
|-----5-----5-------5--------5-|-------|
|-----5-----5-------5--------5-|-------|
|-0-1---0-1----1001----0-101---|-0-0-0-|
  * *   * *    ****    * ***     * * *

(2:58)
Repeat: x2
Notes: This is my way of playing it.

|--------------------------------------------|
|--------------------------------------------|
|-----9-----5-------5--------10----14----17--|
|--------------------------------------------|
|-----7-----3-------3--------8-----12----15--|
|-0-0---0-0---0-000----0-000----0-0--0-0-----|
  * *   * *   * ***    * ***    * *  * *

|--------------------------------------|
|--------------------------------------|
|-------12-------12-----12------12-----|
|--------------------------------------|
|-------10-------10-----10------10-----|
|-0-000-0--0-000-0--0-0-0--0-0--0--000-|
  * ***    * ***    * *    * *     ***

(3:12)
|---------------------|
|---------------------|
|---------------------|
|---------------------|
|--00000-00000000-000-|
|--11111-11111111-111-|
   ***** ******** ***

Eventually this is played:

|--------------------------|
|--------------------------|
|--------------------------|
|--------------------------|
|--00000-00000000-00000000-|
|--11111-11111111-11111111-|
   ***** ******** ********

|---------------------|
|---------------------|
|---------------------|
|---------------------|
|--000-00000000-00000-|
|--111-11111111-11111-|
   *** ******** *****





Comments


Popular Veil Of Maya tabs & chords
Dark Passenger Tabs
It's Not Safe To Swim Today 1 Tabs
Its Not Safe To Swim Today 6 Tabs
Its Not Safe To Swim Today-intro Intro Tabs
Mark The Lines Tabs
Namaste Intro Tabs
Pillars Intro Tabs
The Glass Slide Tabs
We Bow In Its Aura 1 Tabs
Wounds Tabs


Song lyrics



↑ Back to top | Tablatures and chords are parodies/interpretations of the original songs. You may use it for private study, scholarship, research or language learning purposes only
© 2014 AZChords.com Contact us | Privacy policy | DMCA | Add/correct tabs | Request tabs | Top 50 tabs