>
 >
Namaste

Namaste Guitar Tabs

Veil Of Maya - Namaste chords, tabs, tablatures, lyrics

Guitar lessons | Add/correct | Request | Top 50 tabs Artists:  A B C D E F G H I J K L M N O P Q R S T U V W X Y Z 0-9

Namaste Guitar Tabs – Veil Of Maya

CD, Sheet music, Poster

Do you like Namaste? Share with your friends now
TabsTabs v2
Veil of Maya - Namaste


Video of me playing this:


Intro chords (just play to the rhythm) Also, on the 5th chord bend a little on the 5
--------------------------------------------|
--------------------------------------------|
--------------------------------------------|
-7--8--7--5-----5---------------------------|
-5--5--5--1--5--1---------------------------|
-4--4--4--1--1--1---------------------------|

All palm muted

--------------------------------------------------|
--------------------------------------------------|
--------------------------------------------------|
-7777-77777777-7-77777-7-777777-77-777-7777-77----|
-5555-55555555-5-55555-5-555555-55-555-5555-55----|
-4444-44444444-4-44444-4-444444-44-444-4444-44----|

--------------------------------------------------|
--------------------------------------------------|
--------------------------------------------------|
-5555-55555555-5-55555-5-555555-55-555-5555-55----|
-1111-11111111-1-11111-1-111111-11-111-1111-11----|
-1111-11111111-1-11111-1-111111-11-111-1111-11----|

--------------------------------------------|
--------------------------------------------|
--------------------------------------------|
---------0-------------0-------------0------|
--------------------------------------------|
-1-0-1-4---1-0-1-0-1-4---1-0-1-0-1-4--------|

Latin/jazz part
--------------------------------------------|
--------------------------------------------|
--------------------------------------------|
-8---5--7-4--8---5--7-4---------------------|
----5---5-5-----5---5-5---------------------|
--04----4-4---04----4-4---------------------|

Little solo part
-------------------------------------15-17-18-14--15-17---|
--15-16-15-1415141514--------------15---------------------|
----------------------14---------15-----------------------|
-------------------------16-17----------------------------|
----------------------------------------------------------|
----------------------------------------------------------|

Crazy rhythms here from time to time, listen for them(cant really tab them out, just listen)
--------------------------------------------|
--------------------------------------------|
--------------------------------------------|
---------0-------------0-------------0------|
--------------------------------------------|
-1-0-1-4---1-0-1-0-1-4---1-0-1-0-1-4--------|

--------------------------------------------|
--------------------------------------------|
--------------------------------------------|
---------1-------------1-------------1------|
--------------------------------------------|
-1-0-1-4---1-0-1-0-1-4---1-0-1-0-1-4--------|

Weird accents on this part
--------------------------------------------------------|
--------------------------------------------------------|
--------------------------------------------------------|
--------------------------------------------------------|
-0-0000--0-0-0-0000--0-0-0-0000--0-0-0-0000--0-0-0-0000-|
-1-1111--1-1-1-1111--1-1-1-1111--1-1-1-1111--1-1-1-1111-|

------------------------------------------------------|
------------------------------------------------------|
------------------------------------------------------|
------------------------------------------------------|
-0-0000--0-0-0-0000--0-0-0-0-000--0-0-0--00-0-0-0000--|
-1-1111--1-1-1-1111--1-1-1-1-111--1-1-1--11-1-1-1111--|

Chorus part  Fill parts for this riff not 100% (All natural harmonics with *)
-------------------|-------------|---------|-------------|
-------------------|-------------|---------|-------------|
-------------------|-------------|--0------|-777*--------|
-3-------------3---|---4-5-4-----|---4---4-|----777*-----|
-1-0-2-3-2-1-0-1-0-|-0-------0---|----3----|--------7*---|
-1-0-2-3-2-1-0-1-0-|-0-4-5-4-0---|-----3---|-------------|

Post Chorus            Fill parts Not 100% on this by any means
----------------------|--------|--------------------------|
----------------------|--------|--------------------------|
----------------------|-0------|--------------------------|
----------------------|--4--4--|-------578754754----------|
----------------------|---3----|----55----------6---------|
-00-00-1-00-0-1-00-00-|----3---|--5-----------------------|

--------------------------------------------|
--------------------------------------------|
--------------------------------------------|
-3------------3-----------------------------|
-1---0-00-00--1--0-0-0000-------------------|
-1---0-00-00--1--0-0-0000-------------------|

Intro rhythm, open chugs
-------------------------------------------------|
-------------------------------------------------|
-------------------------------------------------|
-------------------------------------------------|
-0000-00000000-0-00000-0-000000--00-000-0000-00--|
-0000-00000000-0-00000-0-000000--00-000-0000-00--|

Awesome lead played over that ^
--------------------------------------------|
--15----------------------------------------|
----14------15-14---------------------------|
------15-12-------15-12---------------------|
--------------------------------------------|
--------------------------------------------|

--------------------------------------------|
--------------------------------------------|
--------------------------------------------|
-3------------3-----------------------------|
-1---0-00-00--1--0-0-0000-------------------|
-1---0-00-00--1--0-0-0000-------------------|

Same thing as before, just much faster/
-------------------------------------------------|
-------------------------------------------------|
-------------------------------------------------|
-------------------------------------------------|
-0000-00000000-0-00000-0-000000--00-000-0000-00--|
-0000-00000000-0-00000-0-000000--00-000-0000-00--|

Over that riff ^
--------------------------------------------|
--15----------------------------------------|
----14------15-14---------------------------|
------15-12-------15-12---------------------|
--------------------------------------------|
--------------------------------------------|

Latin/Jazz outro.
--------------------------------------------|
--------------------------------------------|
--------------------------------------------|
-8---5--7-4--8---5--7-4---------------------|
----5---5-5-----5---5-5---------------------|
--04----4-4---04----4-4---------------------|

Played again here.
-------------------------------------15-17-18-14--15-17---|
--15-16-15-1415141514--------------15---------------------|
----------------------14---------15-----------------------|
-------------------------16-17----------------------------|
----------------------------------------------------------|
----------------------------------------------------------|





Comments


Popular Veil Of Maya tabs & chords
Martrys Bass Tabs
All Things Set Aside Tabs
Crawl Back Tabs
It's Not Safe To Swim Today Tabs
It's Not Safe To Swim Today 2 Tabs
Namaste 1 Tabs
Pillars Tabs
The Higler Tabs
The UprisingIntro Tabs
We Bow In It's Aura Tabs


Song lyrics



↑ Back to top | Tablatures and chords are parodies/interpretations of the original songs. You may use it for private study, scholarship, research or language learning purposes only
© 2014 AZChords.com Contact us | Privacy policy | DMCA | Add/correct tabs | Request tabs | Top 50 tabs