>
 >
By Your Bedside 1

By Your Bedside 1 Guitar Tabs

Vehemence - By Your Bedside 1 chords, tabs, tablatures, lyrics

Guitar lessons | Add/correct | Request | Top 50 tabs Artists:  A B C D E F G H I J K L M N O P Q R S T U V W X Y Z 0-9

By Your Bedside 1 Guitar Tabs – Vehemence

CD, Sheet music, Poster

Do you like By Your Bedside 1? Share with your friends now
TabsTabs v2
100% correct, posted by the guitarists themselves!

B ||----------------------------------------|
F#||----------------------------------------|
D ||----------------------------------------|
A ||----------------------------------------|
E ||----------------------------------------|
B ||--0-0-0-3-0-3-0-2-0-2-0-1-0-2-2-0-3-3-0-|


                                         
----------------------------------------|
----------------------------------------|
----------------------------------------|
----------------------------------------|
----------------------------------------|
--0-0-0-3-0-3-0-2-0-2-0-1-0-2-2-0-3-3-0-|


                                                                             
----------------------------------------|-----------------------------------|
----------------------------------------|-----------------------------------|
----------------------------------------|-----------------------------------|
----------------------------------------|-----------------------------------|
----------------------------------------|-----------------------------------|
--0-0-0-3-0-3-0-2-0-2-0-1-0-2-2-0-3-3-0-|--0-0-0-3-0-3-0-2-0-5-0-6-0-5-0-3--|


                                         
----------------------------------------|
----------------------------------------|
----------------------------------------|
----------------------------------------|
----------------------------------------|
--0-0-0-3-0-3-0-2-0-2-0-1-0-2-2-0-3-3-0-|


                                         
----------------------------------------|
----------------------------------------|
----------------------------------------|
----------------------------------------|
----------------------------------------|
--0-0-0-3-0-3-0-2-0-2-0-1-0-2-2-0-3-3-0-|


                                                                             
----------------------------------------|-----------------------------------|
----------------------------------------|-----------------------------------|
----------------------------------------|-----------------------------------|
----------------------------------------|-----------------------------------|
----------------------------------------|-----------------------------------|
--0-0-0-3-0-3-0-2-0-2-0-1-0-2-2-0-3-3-0-|--0-0-0-3-0-3-0-2-0-5-0-6-0-5-0-3--|


                                         
----------------------------------------|
----------------------------------------|
----------------------------------------|
----------------------------------------|
----------------------------------------|
--0-0-0-3-0-3-0-2-0-2-0-1-0-2-2-0-3-3-0-|


                                         
----------------------------------------|
----------------------------------------|
----------------------------------------|
----------------------------------------|
----------------------------------------|
--0-0-0-3-0-3-0-2-0-2-0-1-0-2-2-0-3-3-0-|


                                                                             
----------------------------------------|-----------------------------------|
----------------------------------------|-----------------------------------|
----------------------------------------|-----------------------------------|
----------------------------------------|-----------------------------------|
----------------------------------------|-----------------------------------|
--0-0-0-3-0-3-0-2-0-2-0-1-0-2-2-0-3-3-0-|--0-0-0-3-0-3-0-2-0-5-0-6-0-5-0-3--|


                                         
----------------------------------------|
----------------------------------------|
----------------------------------------|
----------------------------------------|
----------------------------------------|
--0-0-0-3-0-3-0-2-0-2-0-1-0-2-2-0-3-3-0-|


                                         
----------------------------------------|
----------------------------------------|
----------------------------------------|
----------------------------------------|
----------------------------------------|
--0-0-0-3-0-3-0-2-0-2-0-1-0-2-2-0-3-3-0-|


                                                                             
----------------------------------------|-----------------------------------|
----------------------------------------|-----------------------------------|
----------------------------------------|-----------------------------------|
----------------------------------------|-----------------------------------|
----------------------------------------|-----------------------------------|
--0-0-0-3-0-3-0-2-0-2-0-1-0-2-2-0-3-3-0-|--0-0-0-3-0-3-0-2-0-5-0-6-0-5-0-3--|


                                                                       
----------------------------------------------------------------------|
----------------------------------------------------------------------|
----------------------------------------------------------------------|
----------------------------------9-9-9-9-9-9-9-9---------------------|
--7-7-7-7-7-7-7-7-7-7-7-7-7-7-7-7-----------------9-9-9-9-10-10-10-10-|
----------------------------------------------------------------------|


                                                                   
------------------------------------------------------------------|
------------------------------------------------------------------|
------------------------------------------------------------------|
----------------------------------7-7-7-7-7-7-7-7-5-5-5-5-4-4-4-4-|
------------------------------------------------------------------|
--8-8-8-8-8-8-8-8-8-8-8-8-8-8-8-8---------------------------------|


                                                                   
------------------------------------------------------------------|
------------------------------------------------------------------|
------------------------------------------------------------------|
------------------------------------------------------------------|
--2-2-2-2-2-2-2-2-2-2-2-2-3-3-2-2-0-0-0-0-0-0-0-0-0-0-0-0-2-2-0-0-|
------------------------------------------------------------------|


                                                                   
------------------------------------------------------------------|
------------------------------------------------------------------|
------------------------------------------------------------------|
------------------------------------------------------------------|
------------------2-2-2-2-2-2-2-2-7-7-7-7-7-7-7-7-7-7-7-7-7-7-7-7-|
--3-3-3-3-3-3-3-3-------------------------------------------------|


                                                                       
----------------------------------------------------------------------|
----------------------------------------------------------------------|
----------------------------------------------------------------------|
--9-9-9-9-9-9-9-9-----------------------------------------------------|
------------------9-9-9-9-10-10-10-10---------------------------------|
--------------------------------------8-8-8-8-8-8-8-8-8-8-8-8-8-8-8-8-|


                                                                   
------------------------------------------------------------------|
------------------------------------------------------------------|
------------------------------------------------------------------|
--7-7-7-7-7-7-7-7-5-5-5-5-4-4-4-4---------------------------------|
----------------------------------2-2-2-2-2-2-2-2-2-2-2-2-3-3-2-2-|
------------------------------------------------------------------|


                                                                   
------------------------------------------------------------------|
------------------------------------------------------------------|
------------------------------------------------------------------|
------------------------------------------------------------------|
--0-0-0-0-0-0-0-0-0-0-0-0-2-2-0-0-----------------2-2-2-2-2-2-2-2-|
----------------------------------3-3-3-3-3-3-3-3-----------------|


                                                                            
--------------------------------------|------------------------------------|
--------------------------------------|------------------------------------|
--------------------------------------|------------------------------------|
--------9---9---7---7-----------------|------9---9---7---7-----------------|
--------------------------------------|------------------------------------|
--0-0-0---0---0---0---0-1-0-2-0-3-3-0-|--0-0---0---0---0---0-1-0-2-0-3-3-0-|


                                                                        
------------------------------------|----------------------------------|
------------------------------------|----------------------------------|
------------------------------------|----------------------------------|
------9---9---7---7-----------------|------9---9---7---9---10---9---7--|
------------------------------------|----------------------------------|
--0-0---0---0---0---0-1-0-2-0-3-3-0-|--0-0---0---0---0---0----0---0----|


                                                                              
--------------------------------------|--------------------------------------|
--------------------------------------|--------------------------------------|
--------------------------------------|--------------------------------------|
--------9---9---7---7-----------------|--------9---9---7---7-----------------|
--------------------------------------|--------------------------------------|
--0-0-0---0---0---0---0-1-0-2-0-3-3-0-|--0-0-0---0---0---0---0-1-0-2-0-3-3-0-|


                                                                          
--------------------------------------|----------------------------------|
--------------------------------------|----------------------------------|
--------------------------------------|----------------------------------|
--------9---9---7---7-----------------|------9---9---7---9---10---9---7--|
--------------------------------------|----------------------------------|
--0-0-0---0---0---0---0-1-0-2-0-3-3-0-|--0-0---0---0---0---0----0---0----|


                                                                       
----------------------------------------------------------------------|
----------------------------------------------------------------------|
----------------------------------------------------------------------|
----------------------------------9-9-9-9-9-9-9-9---------------------|
--7-7-7-7-7-7-7-7-7-7-7-7-7-7-7-7-----------------9-9-9-9-10-10-10-10-|
----------------------------------------------------------------------|


                                                                   
------------------------------------------------------------------|
------------------------------------------------------------------|
------------------------------------------------------------------|
----------------------------------7-7-7-7-7-7-7-7-5-5-5-5-4-4-4-4-|
------------------------------------------------------------------|
--8-8-8-8-8-8-8-8-8-8-8-8-8-8-8-8---------------------------------|


                                                                   
------------------------------------------------------------------|
------------------------------------------------------------------|
------------------------------------------------------------------|
------------------------------------------------------------------|
--2-2-2-2-2-2-2-2-2-2-2-2-3-3-2-2-0-0-0-0-0-0-0-0-0-0-0-0-2-2-0-0-|
------------------------------------------------------------------|


                                                                   
------------------------------------------------------------------|
------------------------------------------------------------------|
------------------------------------------------------------------|
------------------------------------------------------------------|
----------------2-2-2-2-2-2-2-2-2-7-7-7-7-7-7-7-7-7-7-7-7-7-7-7-7-|
--3-3-3-3-3-3-3---------------------------------------------------|


                                                                       
----------------------------------------------------------------------|
----------------------------------------------------------------------|
----------------------------------------------------------------------|
--9-9-9-9-9-9-9-9-----------------------------------------------------|
------------------9-9-9-9-10-10-10-10---------------------------------|
--------------------------------------8-8-8-8-8-8-8-8-8-8-8-8-8-8-8-8-|


                                                                   
------------------------------------------------------------------|
------------------------------------------------------------------|
------------------------------------------------------------------|
--7-7-7-7-7-7-7-7-5-5-5-5-4-4-4-4---------------------------------|
----------------------------------2-2-2-2-2-2-2-2-2-2-2-2-3-3-2-2-|
------------------------------------------------------------------|


                                                                   
------------------------------------------------------------------|
------------------------------------------------------------------|
------------------------------------------------------------------|
------------------------------------------------------------------|
--0-0-0-0-0-0-0-0-0-0-0-0-2-2-0-0-----------------2-2-2-2-2-2-2-2-|
----------------------------------3-3-3-3-3-3-3-3-----------------|


                                                            
-----------------------------------------------------------|
-----------------------------------------------------------|
-----------------------------------------------------------|
-------------10-10-10-10-10-10-10-10-10-10-10-10-9-9-10-10-|
--2----2-2---7--7--7--7--7--7--7--7--7--7--7--7--7-7-7--7--|
--0----0-0-------------------------------------------------|


                                                                 
----------------------------------------------------------------|
----------------------------------------------------------------|
----------------------------------------------------------------|
--9--9--9--9--9--9--9--9--5-5-5-5-5-5-5-5-----------------------|
--10-10-10-10-10-10-10-10-7-7-7-7-7-7-7-7-4-4-3-2-3-4-4-3-4-4-3-|
------------------------------------------2-2-1-0-1-2-2-1-2-2-1-|


                                                                     
--------------------------------------------------------------------|
--------------------------------------------------------------------|
--------------------------------------------------------------------|
----------------------10-10-10-10-10-10-10-10-10-10-10-10-9-9-10-10-|
--2-3-4-4-3-7-7-8-7-5-7--7--7--7--7--7--7--7--7--7--7--7--7-7-7--7--|
--0-1-2-2-1-5-5-6-5-3-----------------------------------------------|


                                                           
----------------------------------------------------------|
----------------------------------------------------------|
----------------------------------------------------------|
--9--9--9--9--9--9--9--9----------------------------------|
--10-10-10-10-10-10-10-10-4-4-3-2-3-4-4-3-4-4-3-2-3-4-4-3-|
--------------------------2-2-1-0-1-2-2-1-2-2-1-0-1-2-2-1-|


                                                                                
--------------------------------------------------------------------------------
--------------------------------------------------------------------------------
--------------------------------------------------------------------------------
------------10-10-10-10-10-10-10-10-10-10-10-10-9-9-10-10-9--9--9--9--9--9--9--9
--7-7-8-7-5-7--7--7--7--7--7--7--7--7--7--7--7--7-7-7--7--10-10-10-10-10-10-10-1
--5-5-6-5-3---------------------------------------------------------------------


                                                   
--------------------------------------------------|
--------------------------------------------------|
--------------------------------------------------|
--5-5-5-5-5-5-5-5---------------------------------|
--7-7-7-7-7-7-7-7-4-4-3-2-3-4-4-3-4-4-3-2-3-4-4-3-|
------------------2-2-1-0-1-2-2-1-2-2-1-0-1-2-2-1-|


                                                                                
--------------------------------------------------------------------------------
--------------------------------------------------------------------------------
--------------------------------------------------------------------------------
------------10-10-10-10-10-10-10-10-10-10-10-10-9-9-10-10-9--9--9--9--9--9--9--9
--7-7-8-7-5-7--7--7--7--7--7--7--7--7--7--7--7--7-7-7--7--10-10-10-10-10-10-10-1
--5-5-6-5-3---------------------------------------------------------------------


                                             
--------------------------------------------|
--------------------------------------------|
--------------------------------------------|
--------------------------------------------|
--4-4-3-2-3-4-4-3-4-4-3-2-3-4-4-3-7-7-8-7-5-|
--2-2-1-0-1-2-2-1-2-2-1-0-1-2-2-1-5-5-6-5-3-|


                                             
--------------------------------------------|
--------------------------------------------|
--------------------------------------------|
--------------------------------------------|
--4-4-3-2-3-4-4-3-4-4-3-2-3-4-4-3-7-7-8-7-5-|
--2-2-1-0-1-2-2-1-2-2-1-0-1-2-2-1-5-5-6-5-3-|


                                             
--------------------------------------------|
--------------------------------------------|
--------------------------------------------|
--------------------------------------------|
--4-4-3-2-3-4-4-3-4-4-3-2-3-4-4-3-7-7-8-7-5-|
--2-2-1-0-1-2-2-1-2-2-1-0-1-2-2-1-5-5-6-5-3-|


                                                    
---------------------------------------------------|
---------------------------------------------------|
---------------------------------------------------|
------5-9----------9-9-9-9-9-9-9-9-9-9-9-9-9-9-9-9-|
--3-7-----7-10-3-7-7-7-7-7-7-7-7-7-7-7-7-7-9-9-9-9-|
---------------------------------------------------|


                                                                                
--------------------------------------------------------------------------------
--------------------------------------------------------------------------------
--------------------------------------------------------------------------------
--9-9-9-9-9--9--9--9--9--9--9--9--9--9--9--9--9-9-9-9-9-9-9-9-9-9-9-9-9-9-9--9--
--9-9-9-9-10-10-10-10-10-10-10-10-10-10-10-10-7-7-7-7-7-7-7-7-7-7-7-7-9-9-10-10-
--------------------------------------------------------------------------------


                                                                           
--------------------------------------------------------------------------|
--------------------------------------------------------------------------|
--------------------------------------------------------------------------|
--9-9-9-9-9--9--9--9--9--9--9--9--9-9-9-9-9-9-9-9-9-9-9-9-9-9-9-9-9-9-9-9-|
--9-9-9-9-10-10-10-10-10-10-10-10-6-6-6-6-7-7-7-7-7-7-7-7-7-7-7-7-9-9-9-9-|
----------8--8--8--8--8--8--8--8------------------------------------------|


                                                                                
--------------------------------------------------------------------------------
--------------------------------------------------------------------------------
--------------------------------------------------------------------------------
--9-9-9-9-9--9--9--9--9--9--9--9--9--9--9--9--9-9-9-9-9-9-9--9--9-9-9-9-9-------
--9-9-9-9-10-10-10-10-10-10-10-10-10-10-10-10-7-7-7-7-9-9-10-10-9-9-9-9-9-9-9-9-
--------------------------------------------------------------------------7-7-7-


                                                      
-----------------------------------------------------|
-----------------------------------------------------|
-----------------------------------------------------|
-----------------------9-9-9-9-9-9-9-9-9-9-9-9-9-9-9-|
--9-10-9-10--12-10-12--7-7-7-7-7-7-7-7-7-7-7-7-9-9-9-|
--7-8--7-8---10-8--10--------------------------------|


                                                                                
-------------------------------------------------------------------------------|
-------------------------------------------------------------------------------|
-------------------------------------------------------------------------------|
--9-9-9-9-9-9--9--9--9--9--9--9--9--9--9--9--9--9-9-9-9-9-9-9-9-9-9-9-9-9-9-9--|
--9-9-9-9-9-10-10-10-10-10-10-10-10-10-10-10-10-7-7-7-7-7-7-7-7-7-7-7-7-9-9-10-|
-------------------------------------------------------------------------------|


                                                                            
---------------------------------------------------------------------------|
---------------------------------------------------------------------------|
---------------------------------------------------------------------------|
--9--9-9-9-9-9--9--9--9--9--9--9--9--9-9-9-9-9-9-9-9-9-9-9-9-9-9-9-9-9-9-9-|
--10-9-9-9-9-10-10-10-10-10-10-10-10-6-6-6-6-7-7-7-7-7-7-7-7-7-7-7-7-9-9-9-|
-------------8--8--8--8--8--8--8--8----------------------------------------|


                                                                                
--------------------------------------------------------------------------------
--------------------------------------------------------------------------------
--------------------------------------------------------------------------------
--9-9-9-9-9-9--9--9--9--9--9--9--9--9--9--9--9--9-9-9-9-9-9-9--9--9-9-9-9-------
--9-9-9-9-9-10-10-10-10-10-10-10-10-10-10-10-10-7-7-7-7-9-9-10-10-9-9-9-9-9-9-9-
--------------------------------------------------------------------------7-7-7-


                                                                  
------------------------------------|----------------------------|
------------------------------------|----------------------------|
------------------------------------|----------------------------|
------------------------------------|----------------------------|
--10-9-10--12-10-12--10--9--10--12--|--10--12--------------------|
--8--7-8---10-8--10--8---7--8---10--|--8---10--0-0---0-0---0-0---|


                                                                        
--------------------------------|--------------------------------------|
--------------------------------|--------------------------------------|
--------------------------------|--------------------------------------|
--------------------------------|--------------------------------------|
--------------------------------|--------------------------------------|
--0-0-0-0-0-0-0-0---0-0---0-0---|--0-0-0-0-0-0-0-0-3-0-3-0-2-0-2-0-1-0-|


                                         
----------------------------------------|
----------------------------------------|
----------------------------------------|
----------------------------------------|
----------------------------------------|
--2-2-0-3-3-0-0-0-0-3-0-3-0-2-0-2-0-1-0-|


                                         
----------------------------------------|
----------------------------------------|
----------------------------------------|
----------------------------------------|
----------------------------------------|
--2-2-0-3-3-0-0-0-0-3-0-3-0-2-0-2-0-1-0-|


                                                                             
----------------------------------------|-----------------------------------|
----------------------------------------|-----------------------------------|
----------------------------------------|-----------------------------------|
----------------------------------------|-----------------------------------|
----------------------------------------|-----------------------------------|
--2-2-0-3-3-0-0-0-0-3-0-3-0-2-0-5-0-6-0-|--5-0-3--0-0-0-3-0-3-0-2-0-2-0-1-0-|


                                         
----------------------------------------|
----------------------------------------|
----------------------------------------|
----------------------------------------|
----------------------------------------|
--2-2-0-3-3-0-0-0-0-3-0-3-0-2-0-2-0-1-0-|


                                         
----------------------------------------|
----------------------------------------|
----------------------------------------|
----------------------------------------|
----------------------------------------|
--2-2-0-3-3-0-0-0-0-3-0-3-0-2-0-2-0-1-0-|


                                                                             
----------------------------------------|-----------------------------------|
----------------------------------------|-----------------------------------|
----------------------------------------|-----------------------------------|
----------------------------------------|---------------9---9---7---7-------|
----------------------------------------|-----------------------------------|
--2-2-0-3-3-0-0-0-0-3-0-3-0-2-0-5-0-6-0-|--5-0-3--0-0-0---0---0---0---0-1-0-|


                                         
----------------------------------------|
----------------------------------------|
----------------------------------------|
--------------------9---9---7---7-------|
----------------------------------------|
--2-2-0-3-3-0-0-0-0---0---0---0---0-1-0-|


                                         
----------------------------------------|
----------------------------------------|
----------------------------------------|
--------------------9---9---7---7-------|
----------------------------------------|
--2-2-0-3-3-0-0-0-0---0---0---0---0-1-0-|


                                                                              
-----------------------------------------|-----------------------------------|
-----------------------------------------|-----------------------------------|
-----------------------------------------|-----------------------------------|
--------------------9---9---7---9---10---|--9---7--------9---9---7---7-------|
-----------------------------------------|-----------------------------------|
--2-2-0-3-3-0-0-0-0---0---0---0---0----0-|----0----0-0-0---0---0---0---0-1-0-|


                                         
----------------------------------------|
----------------------------------------|
----------------------------------------|
--------------------9---9---7---7-------|
----------------------------------------|
--2-2-0-3-3-0-0-0-0---0---0---0---0-1-0-|


                                         
----------------------------------------|
----------------------------------------|
----------------------------------------|
--------------------9---9---7---7-------|
----------------------------------------|
--2-2-0-3-3-0-0-0-0---0---0---0---0-1-0-|


                                          
-----------------------------------------|
-----------------------------------------|
-----------------------------------------|
--------------------9---9---7---9---10---|
-----------------------------------------|
--2-2-0-3-3-0-0-0-0---0---0---0---0----0-|


                                                          
---------------------------------------------------------|
---------------------------------------------------------|
---------------------------------------------------------|
--9---7----------------------------------9-9-9-9-9-9-9-9-|
---------7-7-7-7-7-7-7-7-7-7-7-7-7-7-7-7-----------------|
----0----------------------------------------------------|


                                                                       
----------------------------------------------------------------------|
----------------------------------------------------------------------|
----------------------------------------------------------------------|
------------------------------------------------------7-7-7-7-7-7-7-7-|
--9-9-9-9-10-10-10-10-------------------------------------------------|
----------------------8-8-8-8-8-8-8-8-8-8-8-8-8-8-8-8-----------------|


                                                                   
------------------------------------------------------------------|
------------------------------------------------------------------|
------------------------------------------------------------------|
--5-5-5-5-4-4-4-4-------------------------------------------------|
------------------2-2-2-2-2-2-2-2-2-2-2-2-3-3-2-2-0-0-0-0-0-0-0-0-|
------------------------------------------------------------------|


                                                                   
------------------------------------------------------------------|
------------------------------------------------------------------|
------------------------------------------------------------------|
------------------------------------------------------------------|
--0-0-0-0-2-2-0-0-----------------2-2-2-2-2-2-2-2-7-7-7-7-7-7-7-7-|
------------------3-3-3-3-3-3-3-3---------------------------------|


                                                                       
----------------------------------------------------------------------|
----------------------------------------------------------------------|
----------------------------------------------------------------------|
------------------9-9-9-9-9-9-9-9-------------------------------------|
--7-7-7-7-7-7-7-7-----------------9-9-9-9-10-10-10-10-----------------|
------------------------------------------------------8-8-8-8-8-8-8-8-|


                                                                   
------------------------------------------------------------------|
------------------------------------------------------------------|
------------------------------------------------------------------|
------------------7-7-7-7-7-7-7-7-5-5-5-5-4-4-4-4-----------------|
--------------------------------------------------2-2-2-2-2-2-2-2-|
--8-8-8-8-8-8-8-8-------------------------------------------------|


                                                                   
------------------------------------------------------------------|
------------------------------------------------------------------|
------------------------------------------------------------------|
------------------------------------------------------------------|
--2-2-2-2-3-3-2-2-0-0-0-0-0-0-0-0-0-0-0-0-2-2-0-0-----------------|
--------------------------------------------------3-3-3-3-3-3-3-3-|


                                                      
-----------------------------------|----------------||
-----------------------------------|----------------||
-----------------------------------|----------------||
-----------------------------------|----------------||
--2-2-2-2-2-2-2-2------------------|----------------||
------------------0----0-0---0-0---|--0-0-0-0-0-0-0-||





Comments


Popular Vehemence tabs & chords
Alone In Your Presence Tabs
By Your Bedside Tabs
I Didn't Kill Her Tabs
I Take Your Life Tabs
Kill For God Tabs
Last Fantasy Of Christ (Intro) Tabs
Made For Her Jesus (Intro) Tabs
Spirit Of The Soldier Intro Tabs
To The Taste Tabs
We Are All Dying Tabs


Song lyrics



↑ Back to top | Tablatures and chords are parodies/interpretations of the original songs. You may use it for private study, scholarship, research or language learning purposes only
© 2014 AZChords.com Contact us | Privacy policy | DMCA | Add/correct tabs | Request tabs | Top 50 tabs